  0
SECTION
  2
HEADER
  9
$ACADVER
  1
AC1015
  9
$ACADMAINTVER
 70
     6
  9
$DWGCODEPAGE
  3
ANSI_1254
  9
$INSBASE
 10
0.0
 20
0.0
 30
0.0
  9
$EXTMIN
 10
0.0
 20
0.0
 30
0.0
  9
$EXTMAX
 10
279.4
 20
215.9
 30
0.0
  9
$LIMMIN
 10
0.0
 20
0.0
  9
$LIMMAX
 10
279.4
 20
215.9
  9
$ORTHOMODE
 70
     0
  9
$REGENMODE
 70
     1
  9
$FILLMODE
 70
     1
  9
$QTEXTMODE
 70
     0
  9
$MIRRTEXT
 70
     1
  9
$LTSCALE
 40
1.0
  9
$ATTMODE
 70
     1
  9
$TEXTSIZE
 40
3.5
  9
$TRACEWID
 40
1.0
  9
$TEXTSTYLE
  7
Standard
  9
$CLAYER
  8
0
  9
$CELTYPE
  6
ByLayer
  9
$CECOLOR
 62
   256
  9
$CELTSCALE
 40
1.0
  9
$DISPSILH
 70
     0
  9
$DIMSCALE
 40
1.0
  9
$DIMASZ
 40
3.5
  9
$DIMEXO
 40
1.0
  9
$DIMDLI
 40
3.75
  9
$DIMRND
 40
0.0
  9
$DIMDLE
 40
0.0
  9
$DIMEXE
 40
1.0
  9
$DIMTP
 40
0.0
  9
$DIMTM
 40
0.0
  9
$DIMTXT
 40
3.5
  9
$DIMCEN
 40
2.5
  9
$DIMTSZ
 40
0.0
  9
$DIMTOL
 70
     0
  9
$DIMLIM
 70
     0
  9
$DIMTIH
 70
     1
  9
$DIMTOH
 70
     1
  9
$DIMSE1
 70
     0
  9
$DIMSE2
 70
     0
  9
$DIMTAD
 70
     1
  9
$DIMZIN
 70
     0
  9
$DIMBLK
  1

  9
$DIMASO
 70
     1
  9
$DIMSHO
 70
     1
  9
$DIMPOST
  1

  9
$DIMAPOST
  1

  9
$DIMALT
 70
     0
  9
$DIMALTD
 70
     3
  9
$DIMALTF
 40
0.0393700787
  9
$DIMLFAC
 40
1.0
  9
$DIMTOFL
 70
     1
  9
$DIMTVP
 40
0.0
  9
$DIMTIX
 70
     0
  9
$DIMSOXD
 70
     0
  9
$DIMSAH
 70
     0
  9
$DIMBLK1
  1

  9
$DIMBLK2
  1

  9
$DIMSTYLE
  2
ISO-25
  9
$DIMCLRD
 70
     0
  9
$DIMCLRE
 70
     0
  9
$DIMCLRT
 70
     0
  9
$DIMTFAC
 40
1.0
  9
$DIMGAP
 40
1.524
  9
$DIMJUST
 70
     0
  9
$DIMSD1
 70
     0
  9
$DIMSD2
 70
     0
  9
$DIMTOLJ
 70
     0
  9
$DIMTZIN
 70
     0
  9
$DIMALTZ
 70
     0
  9
$DIMALTTZ
 70
     0
  9
$DIMUPT
 70
     0
  9
$DIMDEC
 70
     2
  9
$DIMTDEC
 70
     2
  9
$DIMALTU
 70
     2
  9
$DIMALTTD
 70
     3
  9
$DIMTXSTY
  7
Standard
  9
$DIMAUNIT
 70
     0
  9
$DIMADEC
 70
     2
  9
$DIMALTRND
 40
0.0
  9
$DIMAZIN
 70
     0
  9
$DIMDSEP
 70
    44
  9
$DIMATFIT
 70
     3
  9
$DIMFRAC
 70
     0
  9
$DIMLDRBLK
  1

  9
$DIMLUNIT
 70
     2
  9
$DIMLWD
 70
    -2
  9
$DIMLWE
 70
    -2
  9
$DIMTMOVE
 70
     0
  9
$LUNITS
 70
     2
  9
$LUPREC
 70
     2
  9
$SKETCHINC
 40
1.0
  9
$FILLETRAD
 40
10.0
  9
$AUNITS
 70
     0
  9
$AUPREC
 70
     2
  9
$MENU
  1
.
  9
$ELEVATION
 40
0.0
  9
$PELEVATION
 40
0.0
  9
$THICKNESS
 40
0.0
  9
$LIMCHECK
 70
     0
  9
$CHAMFERA
 40
0.0
  9
$CHAMFERB
 40
0.0
  9
$CHAMFERC
 40
0.0
  9
$CHAMFERD
 40
0.0
  9
$SKPOLY
 70
     0
  9
$TDCREATE
 40
2459948.579390648
  9
$TDUCREATE
 40
2459948.454390648
  9
$TDUPDATE
 40
2459948.579390822
  9
$TDUUPDATE
 40
2459948.454390822
  9
$TDINDWG
 40
0.0000000116
  9
$TDUSRTIMER
 40
0.0000000116
  9
$USRTIMER
 70
     1
  9
$ANGBASE
 50
0.0
  9
$ANGDIR
 70
     0
  9
$PDMODE
 70
     0
  9
$PDSIZE
 40
-1.0
  9
$PLINEWID
 40
0.0
  9
$SPLFRAME
 70
     0
  9
$SPLINETYPE
 70
     6
  9
$SPLINESEGS
 70
     8
  9
$HANDSEED
  5
16B
  9
$SURFTAB1
 70
     6
  9
$SURFTAB2
 70
     6
  9
$SURFTYPE
 70
     6
  9
$SURFU
 70
     6
  9
$SURFV
 70
     6
  9
$UCSBASE
  2

  9
$UCSNAME
  2

  9
$UCSORG
 10
0.0
 20
0.0
 30
0.0
  9
$UCSXDIR
 10
1.0
 20
0.0
 30
0.0
  9
$UCSYDIR
 10
0.0
 20
1.0
 30
0.0
  9
$UCSORTHOREF
  2

  9
$UCSORTHOVIEW
 70
     0
  9
$UCSORGTOP
 10
0.0
 20
0.0
 30
0.0
  9
$UCSORGBOTTOM
 10
0.0
 20
0.0
 30
0.0
  9
$UCSORGLEFT
 10
0.0
 20
0.0
 30
0.0
  9
$UCSORGRIGHT
 10
0.0
 20
0.0
 30
0.0
  9
$UCSORGFRONT
 10
0.0
 20
0.0
 30
0.0
  9
$UCSORGBACK
 10
0.0
 20
0.0
 30
0.0
  9
$PUCSBASE
  2

  9
$PUCSNAME
  2

  9
$PUCSORG
 10
0.0
 20
0.0
 30
0.0
  9
$PUCSXDIR
 10
1.0
 20
0.0
 30
0.0
  9
$PUCSYDIR
 10
0.0
 20
1.0
 30
0.0
  9
$PUCSORTHOREF
  2

  9
$PUCSORTHOVIEW
 70
     0
  9
$PUCSORGTOP
 10
0.0
 20
0.0
 30
0.0
  9
$PUCSORGBOTTOM
 10
0.0
 20
0.0
 30
0.0
  9
$PUCSORGLEFT
 10
0.0
 20
0.0
 30
0.0
  9
$PUCSORGRIGHT
 10
0.0
 20
0.0
 30
0.0
  9
$PUCSORGFRONT
 10
0.0
 20
0.0
 30
0.0
  9
$PUCSORGBACK
 10
0.0
 20
0.0
 30
0.0
  9
$USERI1
 70
     0
  9
$USERI2
 70
     0
  9
$USERI3
 70
     0
  9
$USERI4
 70
     0
  9
$USERI5
 70
     0
  9
$USERR1
 40
0.0
  9
$USERR2
 40
0.0
  9
$USERR3
 40
0.0
  9
$USERR4
 40
0.0
  9
$USERR5
 40
0.0
  9
$WORLDVIEW
 70
     1
  9
$SHADEDGE
 70
     3
  9
$SHADEDIF
 70
    70
  9
$TILEMODE
 70
     1
  9
$MAXACTVP
 70
    64
  9
$PINSBASE
 10
0.0
 20
0.0
 30
0.0
  9
$PLIMCHECK
 70
     0
  9
$PEXTMIN
 10
1.0000000000E+20
 20
1.0000000000E+20
 30
1.0000000000E+20
  9
$PEXTMAX
 10
-1.0000000000E+20
 20
-1.0000000000E+20
 30
-1.0000000000E+20
  9
$PLIMMIN
 10
0.0
 20
0.0
  9
$PLIMMAX
 10
420.0
 20
297.0
  9
$UNITMODE
 70
     0
  9
$VISRETAIN
 70
     1
  9
$PLINEGEN
 70
     0
  9
$PSLTSCALE
 70
     1
  9
$TREEDEPTH
 70
  3020
  9
$CMLSTYLE
  2
Standard
  9
$CMLJUST
 70
     0
  9
$CMLSCALE
 40
20.0
  9
$PROXYGRAPHICS
 70
     1
  9
$MEASUREMENT
 70
     1
  9
$CELWEIGHT
370
    -1
  9
$ENDCAPS
280
     0
  9
$JOINSTYLE
280
     0
  9
$LWDISPLAY
290
     1
  9
$INSUNITS
 70
     4
  9
$HYPERLINKBASE
  1

  9
$STYLESHEET
  1

  9
$XEDIT
290
     1
  9
$CEPSNTYPE
380
     0
  9
$PSTYLEMODE
290
     1
  9
$FINGERPRINTGUID
  2
{dfcdb5e3-a39c-41d0-954b-7da43f85b4d5}
  9
$VERSIONGUID
  2
{FAEB1C32-E019-11D5-929B-00C0DF256EC4}
  9
$EXTNAMES
290
     1
  9
$PSVPSCALE
 40
0.0
  9
$OLESTARTUP
290
     0
  0
ENDSEC
  0
SECTION
  2
CLASSES
  0
CLASS
  1
ACDBDICTIONARYWDFLT
  2
AcDbDictionaryWithDefault
  3
ObjectDBX Classes
 90
        0
280
     0
281
     0
  0
CLASS
  1
VISUALSTYLE
  2
AcDbVisualStyle
  3
ObjectDBX Classes
 90
     4095
280
     0
281
     0
  0
CLASS
  1
MATERIAL
  2
AcDbMaterial
  3
ObjectDBX Classes
 90
     1153
280
     0
281
     0
  0
CLASS
  1
SCALE
  2
AcDbScale
  3
ObjectDBX Classes
 90
     1153
280
     0
281
     0
  0
CLASS
  1
TABLESTYLE
  2
AcDbTableStyle
  3
ObjectDBX Classes
 90
     4095
280
     0
281
     0
  0
CLASS
  1
MLEADERSTYLE
  2
AcDbMLeaderStyle
  3
ACDB_MLEADERSTYLE_CLASS
 90
     4095
280
     0
281
     0
  0
CLASS
  1
SUN
  2
AcDbSun
  3
SCENEOE
 90
     1153
280
     0
281
     0
  0
CLASS
  1
ACDBPLACEHOLDER
  2
AcDbPlaceHolder
  3
ObjectDBX Classes
 90
        0
280
     0
281
     0
  0
CLASS
  1
LAYOUT
  2
AcDbLayout
  3
ObjectDBX Classes
 90
        0
280
     0
281
     0
  0
ENDSEC
  0
SECTION
  2
TABLES
  0
TABLE
  2
VPORT
  5
8
330
0
100
AcDbSymbolTable
 70
     1
  0
VPORT
  5
29
330
8
100
AcDbSymbolTableRecord
100
AcDbViewportTableRecord
  2
*Active
 70
     0
 10
0.0
 20
0.0
 11
1.0
 21
1.0
 12
139.7
 22
107.95
 13
0.0
 23
0.0
 14
10.0
 24
10.0
 15
10.0
 25
10.0
 16
0.0
 26
0.0
 36
1.0
 17
0.0
 27
0.0
 37
0.0
 40
215.9
 41
1.2941176471
 42
50.0
 43
0.0
 44
0.0
 50
0.0
 51
0.0
 71
     0
 72
  2000
 73
     1
 74
     3
 75
     0
 76
     0
 77
     0
 78
     0
281
     0
 65
     1
110
0.0
120
0.0
130
0.0
111
1.0
121
0.0
131
0.0
112
0.0
122
1.0
132
0.0
 79
     0
146
0.0
  0
ENDTAB
  0
TABLE
  2
LTYPE
  5
5
330
0
100
AcDbSymbolTable
 70
     6
  0
LTYPE
  5
14
330
5
100
AcDbSymbolTableRecord
100
AcDbLinetypeTableRecord
  2
ByBlock
 70
     0
  3

 72
    65
 73
     0
 40
0.0
  0
LTYPE
  5
15
330
5
100
AcDbSymbolTableRecord
100
AcDbLinetypeTableRecord
  2
ByLayer
 70
     0
  3

 72
    65
 73
     0
 40
0.0
  0
LTYPE
  5
16
330
5
100
AcDbSymbolTableRecord
100
AcDbLinetypeTableRecord
  2
Continuous
 70
     0
  3
Solid line
 72
    65
 73
     0
 40
0.0
  0
LTYPE
  5
6E
330
5
100
AcDbSymbolTableRecord
100
AcDbLinetypeTableRecord
  2
HIDDEN
 70
     0
  3
Hidden __ __ __ __ __ __ __ __ __ __ __ __ __ __
 72
    65
 73
     2
 40
1.905
 49
1.27
 74
     0
 49
-0.635
 74
     0
  0
LTYPE
  5
6F
330
5
100
AcDbSymbolTableRecord
100
AcDbLinetypeTableRecord
  2
PHANTOM
 70
     0
  3
Phantom ______  __  __  ______  __  __  ______
 72
    65
 73
     6
 40
12.7
 49
6.35
 74
     0
 49
-1.27
 74
     0
 49
1.27
 74
     0
 49
-1.27
 74
     0
 49
1.27
 74
     0
 49
-1.27
 74
     0
  0
LTYPE
  5
70
330
5
100
AcDbSymbolTableRecord
100
AcDbLinetypeTableRecord
  2
CENTER
 70
     0
  3
Center ____ _ ____ _ ____ _ ____ _ ____ _ ____
 72
    65
 73
     4
 40
10.16
 49
6.35
 74
     0
 49
-1.27
 74
     0
 49
1.27
 74
     0
 49
-1.27
 74
     0
  0
LTYPE
  5
71
330
5
100
AcDbSymbolTableRecord
100
AcDbLinetypeTableRecord
  2
CENTERX2
 70
     0
  3
Center (2x) ________  __  ________  __  _____
 72
    65
 73
     4
 40
20.32
 49
12.7
 74
     0
 49
-2.54
 74
     0
 49
2.54
 74
     0
 49
-2.54
 74
     0
  0
LTYPE
  5
72
330
5
100
AcDbSymbolTableRecord
100
AcDbLinetypeTableRecord
  2
DOT2
 70
     0
  3
Dot (.5x) ........................................
 72
    65
 73
     2
 40
0.635
 49
0.0
 74
     0
 49
-0.635
 74
     0
  0
ENDTAB
  0
TABLE
  2
LAYER
  5
2
330
0
100
AcDbSymbolTable
 70
    17
  0
LAYER
  5
10
330
2
100
AcDbSymbolTableRecord
100
AcDbLayerTableRecord
  2
0
 70
     0
 62
     7
  6
Continuous
370
    -3
390
F
  0
LAYER
  5
73
330
2
100
AcDbSymbolTableRecord
100
AcDbLayerTableRecord
  2
FORMAT
 70
     0
 62
     7
  6
Continuous
370
    -3
390
F
  0
LAYER
  5
74
330
2
100
AcDbSymbolTableRecord
100
AcDbLayerTableRecord
  2
YARDIMCI_GEOMETRI
 70
     0
 62
    -6
  6
Continuous
290
     0
370
    -3
390
F
  0
LAYER
  5
75
330
2
100
AcDbSymbolTableRecord
100
AcDbLayerTableRecord
  2
SAYFA_CERCEVESI
 70
     0
 62
     7
  6
Continuous
370
    25
390
F
  0
LAYER
  5
76
330
2
100
AcDbSymbolTableRecord
100
AcDbLayerTableRecord
  2
ANTET
 70
     0
 62
     7
  6
Continuous
370
    -3
390
F
  0
LAYER
  5
77
330
2
100
AcDbSymbolTableRecord
100
AcDbLayerTableRecord
  2
OLCU
 70
     0
 62
   150
  6
Continuous
370
    -3
390
F
  0
LAYER
  5
78
330
2
100
AcDbSymbolTableRecord
100
AcDbLayerTableRecord
  2
METIN
 70
     0
 62
    96
  6
Continuous
370
    -3
390
F
  0
LAYER
  5
79
330
2
100
AcDbSymbolTableRecord
100
AcDbLayerTableRecord
  2
BALON
 70
     0
 62
     5
  6
Continuous
370
    -3
390
F
  0
LAYER
  5
7A
330
2
100
AcDbSymbolTableRecord
100
AcDbLayerTableRecord
  2
VURGU
 70
     0
 62
     7
  6
Continuous
370
    -3
390
F
  0
LAYER
  5
7B
330
2
100
AcDbSymbolTableRecord
100
AcDbLayerTableRecord
  2
SILIK
 70
     0
 62
     7
  6
Continuous
370
    -3
390
F
  0
LAYER
  5
7C
330
2
100
AcDbSymbolTableRecord
100
AcDbLayerTableRecord
  2
MODEL
 70
     0
 62
     7
  6
Continuous
370
    -3
390
F
  0
LAYER
  5
7D
330
2
100
AcDbSymbolTableRecord
100
AcDbLayerTableRecord
  2
DETAYLANDıRMA
 70
     0
 62
   190
  6
Continuous
370
    -3
390
F
  0
LAYER
  5
7E
330
2
100
AcDbSymbolTableRecord
100
AcDbLayerTableRecord
  2
TOLERANS
 70
     0
 62
   230
  6
Continuous
370
    -3
390
F
  0
LAYER
  5
7F
330
2
100
AcDbSymbolTableRecord
100
AcDbLayerTableRecord
  2
MERKEZ_CIZGILERI
 70
     0
 62
    30
  6
Continuous
370
    -3
390
F
  0
LAYER
  5
80
330
2
100
AcDbSymbolTableRecord
100
AcDbLayerTableRecord
  2
KESIT-DETAY_CIZGILERI
 70
     0
 62
     7
  6
Continuous
370
    -3
390
F
  0
LAYER
  5
81
330
2
100
AcDbSymbolTableRecord
100
AcDbLayerTableRecord
  2
\U+041E\U+0421\U+0415\U+0412\U+042B\U+0415
 70
     0
 62
     7
  6
Continuous
370
    -3
390
F
  0
LAYER
  5
82
330
2
100
AcDbSymbolTableRecord
100
AcDbLayerTableRecord
  2
\U+0412\U+041E\U+0414\U+042F\U+041D\U+042B\U+0415_\U+0417\U+041D\U+0410\U+041A\U+0418
 70
     0
 62
    11
  6
Continuous
370
    -3
390
F
  0
ENDTAB
  0
TABLE
  2
STYLE
  5
3
330
0
100
AcDbSymbolTable
 70
     1
  0
STYLE
  5
11
330
3
100
AcDbSymbolTableRecord
100
AcDbTextStyleTableRecord
  2
Standard
 70
     0
 40
0.0
 41
1.0
 50
0.0
 71
     0
 42
3.5
  3
txt
  4

  0
ENDTAB
  0
TABLE
  2
VIEW
  5
6
330
0
100
AcDbSymbolTable
 70
     0
  0
ENDTAB
  0
TABLE
  2
UCS
  5
7
330
0
100
AcDbSymbolTable
 70
     0
  0
ENDTAB
  0
TABLE
  2
APPID
  5
9
330
0
100
AcDbSymbolTable
 70
     1
  0
APPID
  5
12
330
9
100
AcDbSymbolTableRecord
100
AcDbRegAppTableRecord
  2
ACAD
 70
     0
  0
ENDTAB
  0
TABLE
  2
DIMSTYLE
  5
A
330
0
100
AcDbSymbolTable
 70
     1
100
AcDbDimStyleTable
  0
DIMSTYLE
105
27
330
A
100
AcDbSymbolTableRecord
100
AcDbDimStyleTableRecord
  2
ISO-25
 70
     0
 41
2.5
 42
0.625
 43
3.75
 44
1.25
 73
     0
 74
     0
 77
     1
 78
     8
140
2.5
141
2.5
143
0.0393700787
147
0.625
171
     3
172
     1
178
     0
271
     2
272
     2
274
     3
278
    44
283
     0
284
     8
340
11
  0
ENDTAB
  0
TABLE
  2
BLOCK_RECORD
  5
1
330
0
100
AcDbSymbolTable
 70
     2
  0
BLOCK_RECORD
  5
1F
330
1
100
AcDbSymbolTableRecord
100
AcDbBlockTableRecord
  2
*Model_Space
340
22
  0
BLOCK_RECORD
  5
1B
330
1
100
AcDbSymbolTableRecord
100
AcDbBlockTableRecord
  2
*Paper_Space
340
1E
  0
BLOCK_RECORD
  5
23
330
1
100
AcDbSymbolTableRecord
100
AcDbBlockTableRecord
  2
*Paper_Space0
340
26
  0
BLOCK_RECORD
  5
8E
330
1
100
AcDbSymbolTableRecord
100
AcDbBlockTableRecord
  2
SW_CENTERMARKSYMBOL_0
340
0
102
{BLKREFS
331
99
102
}
  0
ENDTAB
  0
ENDSEC
  0
SECTION
  2
BLOCKS
  0
BLOCK
  5
20
330
1F
100
AcDbEntity
  8
0
100
AcDbBlockBegin
  2
*Model_Space
 70
     0
 10
0.0
 20
0.0
 30
0.0
  3
*Model_Space
  1

  0
ENDBLK
  5
21
330
1F
100
AcDbEntity
  8
0
100
AcDbBlockEnd
  0
BLOCK
  5
1C
330
1B
100
AcDbEntity
 67
     1
  8
0
100
AcDbBlockBegin
  2
*Paper_Space
 70
     0
 10
0.0
 20
0.0
 30
0.0
  3
*Paper_Space
  1

  0
ENDBLK
  5
1D
330
1B
100
AcDbEntity
 67
     1
  8
0
100
AcDbBlockEnd
  0
BLOCK
  5
24
330
23
100
AcDbEntity
  8
0
100
AcDbBlockBegin
  2
*Paper_Space0
 70
     0
 10
0.0
 20
0.0
 30
0.0
  3
*Paper_Space0
  1

  0
ENDBLK
  5
25
330
23
100
AcDbEntity
  8
0
100
AcDbBlockEnd
  0
BLOCK
  5
8F
330
8E
100
AcDbEntity
  8
0
100
AcDbBlockBegin
  2
SW_CENTERMARKSYMBOL_0
 70
     0
 10
0.0
 20
0.0
 30
0.0
  3
SW_CENTERMARKSYMBOL_0
  1

  0
LINE
  5
91
330
8E
100
AcDbEntity
  8
FORMAT
 62
     0
100
AcDbLine
 10
0.0
 20
0.0
 30
0.0
 11
0.0
 21
2.5
 31
0.0
  0
LINE
  5
92
330
8E
100
AcDbEntity
  8
FORMAT
 62
     0
100
AcDbLine
 10
0.0
 20
0.0
 30
0.0
 11
-2.5
 21
0.0
 31
0.0
  0
LINE
  5
93
330
8E
100
AcDbEntity
  8
FORMAT
 62
     0
100
AcDbLine
 10
0.0
 20
0.0
 30
0.0
 11
0.0
 21
-2.5
 31
0.0
  0
LINE
  5
94
330
8E
100
AcDbEntity
  8
FORMAT
 62
     0
100
AcDbLine
 10
0.0
 20
0.0
 30
0.0
 11
2.5
 21
0.0
 31
0.0
  0
LINE
  5
95
330
8E
100
AcDbEntity
  8
FORMAT
 62
     0
100
AcDbLine
 10
0.0
 20
5.0
 30
0.0
 11
0.0
 21
22.5
 31
0.0
  0
LINE
  5
96
330
8E
100
AcDbEntity
  8
FORMAT
 62
     0
100
AcDbLine
 10
-5.0
 20
0.0
 30
0.0
 11
-22.5
 21
0.0
 31
0.0
  0
LINE
  5
97
330
8E
100
AcDbEntity
  8
FORMAT
 62
     0
100
AcDbLine
 10
0.0
 20
-5.0
 30
0.0
 11
0.0
 21
-22.5
 31
0.0
  0
LINE
  5
98
330
8E
100
AcDbEntity
  8
FORMAT
 62
     0
100
AcDbLine
 10
5.0
 20
0.0
 30
0.0
 11
22.5
 21
0.0
 31
0.0
  0
ENDBLK
  5
90
330
8E
100
AcDbEntity
  8
0
100
AcDbBlockEnd
  0
ENDSEC
  0
SECTION
  2
ENTITIES
  0
CIRCLE
  5
83
330
1F
100
AcDbEntity
  8
0
  6
Continuous
 62
     7
370
    25
100
AcDbCircle
 10
139.8323425481
 20
108.7440552885
 30
0.0
 40
16.30000000000001
  0
CIRCLE
  5
84
330
1F
100
AcDbEntity
  8
0
  6
Continuous
 62
     7
370
    25
100
AcDbCircle
 10
139.8323425481
 20
108.7440552885
 30
0.0
 40
20.00000000000001
  0
CIRCLE
  5
85
330
1F
100
AcDbEntity
  8
0
  6
Continuous
 62
     7
370
    25
100
AcDbCircle
 10
139.8323425481
 20
108.7440552885
 30
0.0
 40
13.75000000000001
  0
CIRCLE
  5
86
330
1F
100
AcDbEntity
  8
0
  6
Continuous
 62
     7
370
    25
100
AcDbCircle
 10
139.8323425481
 20
108.7440552885
 30
0.0
 40
22.00000000000001
  0
CIRCLE
  5
87
330
1F
100
AcDbEntity
  8
0
  6
Continuous
 62
     7
370
    25
100
AcDbCircle
 10
139.8323425481
 20
108.7440552885
 30
0.0
 40
22.50000000000001
  0
LINE
  5
88
330
1F
100
AcDbEntity
  8
0
  6
Continuous
 62
     7
370
    25
100
AcDbLine
 10
114.8323425481
 20
123.1778120182
 30
0.0
 11
114.8323425481
 21
94.3102985587
 31
0.0
  0
LINE
  5
89
330
1F
100
AcDbEntity
  8
0
  6
Continuous
 62
     7
370
    25
100
AcDbLine
 10
139.8323425481
 20
137.6115687479
 30
0.0
 11
114.8323425481
 21
123.1778120182
 31
0.0
  0
LINE
  5
8A
330
1F
100
AcDbEntity
  8
0
  6
Continuous
 62
     7
370
    25
100
AcDbLine
 10
164.8323425481
 20
94.3102985587
 30
0.0
 11
164.8323425481
 21
123.1778120182
 31
0.0
  0
LINE
  5
8B
330
1F
100
AcDbEntity
  8
0
  6
Continuous
 62
     7
370
    25
100
AcDbLine
 10
164.8323425481
 20
123.1778120182
 30
0.0
 11
139.8323425481
 21
137.6115687479
 31
0.0
  0
LINE
  5
8C
330
1F
100
AcDbEntity
  8
0
  6
Continuous
 62
     7
370
    25
100
AcDbLine
 10
139.8323425481
 20
79.876541829
 30
0.0
 11
164.8323425481
 21
94.3102985587
 31
0.0
  0
LINE
  5
8D
330
1F
100
AcDbEntity
  8
0
  6
Continuous
 62
     7
370
    25
100
AcDbLine
 10
114.8323425481
 20
94.3102985587
 30
0.0
 11
139.8323425481
 21
79.876541829
 31
0.0
  0
INSERT
  5
99
330
1F
100
AcDbEntity
  8
FORMAT
 62
     7
100
AcDbBlockReference
  2
SW_CENTERMARKSYMBOL_0
 10
139.8323425481
 20
108.7440552885
 30
0.0
  0
LINE
  5
9A
330
1F
100
AcDbEntity
  8
0
  6
Continuous
 62
     7
370
    25
100
AcDbLine
 10
162.3323425481
 20
183.7373817627
 30
0.0
 11
162.3323425481
 21
207.2373817627
 31
0.0
  0
LINE
  5
9B
330
1F
100
AcDbEntity
  8
0
  6
Continuous
 62
     7
370
    25
100
AcDbLine
 10
117.3323425481
 20
207.2373817627
 30
0.0
 11
117.3323425481
 21
183.7373817627
 31
0.0
  0
ARC
  5
9C
330
1F
100
AcDbEntity
  8
0
  6
Continuous
 62
     7
370
    25
100
AcDbCircle
 10
161.8323425481
 20
207.2373817627
 30
0.0
 40
0.5
100
AcDbArc
 50
0.0
 51
90.0
  0
ARC
  5
9D
330
1F
100
AcDbEntity
  8
0
  6
Continuous
 62
     7
370
    25
100
AcDbCircle
 10
117.8323425481
 20
207.2373817627
 30
0.0
 40
0.5
100
AcDbArc
 50
90.0
 51
180.0
  0
LINE
  5
9E
330
1F
100
AcDbEntity
  8
0
  6
Continuous
 62
     7
370
    25
100
AcDbLine
 10
118.8773425481
 20
157.7373817627
 30
0.0
 11
120.6093933556
 21
156.7373817627
 31
0.0
  0
LINE
  5
9F
330
1F
100
AcDbEntity
  8
0
  6
Continuous
 62
     7
370
    25
100
AcDbLine
 10
159.0552917405
 20
156.7373817627
 30
0.0
 11
160.7873425481
 21
157.7373817627
 31
0.0
  0
LINE
  5
A0
330
1F
100
AcDbEntity
  8
0
  6
Continuous
 62
     7
370
    25
100
AcDbLine
 10
160.7873425481
 20
157.7373817627
 30
0.0
 11
159.0552917405
 21
158.7373817627
 31
0.0
  0
LINE
  5
A1
330
1F
100
AcDbEntity
  8
0
  6
Continuous
 62
     7
370
    25
100
AcDbLine
 10
120.6093933556
 20
158.7373817627
 30
0.0
 11
118.8773425481
 21
157.7373817627
 31
0.0
  0
LINE
  5
A2
330
1F
100
AcDbEntity
  8
0
  6
Continuous
 62
     7
370
    25
100
AcDbLine
 10
118.8773425481
 20
159.7373817627
 30
0.0
 11
120.6093933556
 21
158.7373817627
 31
0.0
  0
LINE
  5
A3
330
1F
100
AcDbEntity
  8
0
  6
Continuous
 62
     7
370
    25
100
AcDbLine
 10
159.0552917405
 20
158.7373817627
 30
0.0
 11
160.7873425481
 21
159.7373817627
 31
0.0
  0
LINE
  5
A4
330
1F
100
AcDbEntity
  8
0
  6
Continuous
 62
     7
370
    25
100
AcDbLine
 10
160.7873425481
 20
159.7373817627
 30
0.0
 11
159.0552917405
 21
160.7373817627
 31
0.0
  0
LINE
  5
A5
330
1F
100
AcDbEntity
  8
0
  6
Continuous
 62
     7
370
    25
100
AcDbLine
 10
120.6093933556
 20
160.7373817627
 30
0.0
 11
118.8773425481
 21
159.7373817627
 31
0.0
  0
LINE
  5
A6
330
1F
100
AcDbEntity
  8
0
  6
Continuous
 62
     7
370
    25
100
AcDbLine
 10
118.8773425481
 20
161.7373817627
 30
0.0
 11
120.6093933556
 21
160.7373817627
 31
0.0
  0
LINE
  5
A7
330
1F
100
AcDbEntity
  8
0
  6
Continuous
 62
     7
370
    25
100
AcDbLine
 10
159.0552917405
 20
160.7373817627
 30
0.0
 11
160.7873425481
 21
161.7373817627
 31
0.0
  0
LINE
  5
A8
330
1F
100
AcDbEntity
  8
0
  6
Continuous
 62
     7
370
    25
100
AcDbLine
 10
160.7873425481
 20
161.7373817627
 30
0.0
 11
159.0552917405
 21
162.7373817627
 31
0.0
  0
LINE
  5
A9
330
1F
100
AcDbEntity
  8
0
  6
Continuous
 62
     7
370
    25
100
AcDbLine
 10
120.6093933556
 20
162.7373817627
 30
0.0
 11
118.8773425481
 21
161.7373817627
 31
0.0
  0
LINE
  5
AA
330
1F
100
AcDbEntity
  8
0
  6
Continuous
 62
     7
370
    25
100
AcDbLine
 10
118.8773425481
 20
163.7373817627
 30
0.0
 11
120.6093933556
 21
162.7373817627
 31
0.0
  0
LINE
  5
AB
330
1F
100
AcDbEntity
  8
0
  6
Continuous
 62
     7
370
    25
100
AcDbLine
 10
159.0552917405
 20
162.7373817627
 30
0.0
 11
160.7873425481
 21
163.7373817627
 31
0.0
  0
LINE
  5
AC
330
1F
100
AcDbEntity
  8
0
  6
Continuous
 62
     7
370
    25
100
AcDbLine
 10
160.7873425481
 20
163.7373817627
 30
0.0
 11
160.7873425481
 21
174.7373817627
 31
0.0
  0
LINE
  5
AD
330
1F
100
AcDbEntity
  8
0
  6
Continuous
 62
     7
370
    25
100
AcDbLine
 10
118.8773425481
 20
174.7373817627
 30
0.0
 11
118.8773425481
 21
163.7373817627
 31
0.0
  0
LINE
  5
AE
330
1F
100
AcDbEntity
  8
0
  6
Continuous
 62
     7
370
    25
100
AcDbLine
 10
159.8323425481
 20
207.7373817627
 30
0.0
 11
159.8323425481
 21
258.7373817627
 31
0.0
  0
LINE
  5
AF
330
1F
100
AcDbEntity
  8
0
  6
Continuous
 62
     7
370
    25
100
AcDbLine
 10
119.8323425481
 20
258.7373817627
 30
0.0
 11
119.8323425481
 21
207.7373817627
 31
0.0
  0
LINE
  5
B0
330
1F
100
AcDbEntity
  8
0
  6
Continuous
 62
     7
370
    25
100
AcDbLine
 10
139.8323425481
 20
183.7373817627
 30
0.0
 11
139.8323425481
 21
174.7373817627
 31
0.0
  0
LINE
  5
B1
330
1F
100
AcDbEntity
  8
0
  6
Continuous
 62
     7
370
    25
100
AcDbLine
 10
139.8323425481
 20
183.7373817627
 30
0.0
 11
164.8323425481
 21
183.7373817627
 31
0.0
  0
LINE
  5
B2
330
1F
100
AcDbEntity
  8
0
  6
Continuous
 62
     7
370
    25
100
AcDbLine
 10
164.8323425481
 20
183.7373817627
 30
0.0
 11
164.8323425481
 21
174.7373817627
 31
0.0
  0
LINE
  5
B3
330
1F
100
AcDbEntity
  8
0
  6
Continuous
 62
     7
370
    25
100
AcDbLine
 10
139.8323425481
 20
174.7373817627
 30
0.0
 11
164.8323425481
 21
174.7373817627
 31
0.0
  0
LINE
  5
B4
330
1F
100
AcDbEntity
  8
0
  6
Continuous
 62
     7
370
    25
100
AcDbLine
 10
114.8323425481
 20
183.7373817627
 30
0.0
 11
114.8323425481
 21
174.7373817627
 31
0.0
  0
LINE
  5
B5
330
1F
100
AcDbEntity
  8
0
  6
Continuous
 62
     7
370
    25
100
AcDbLine
 10
114.8323425481
 20
183.7373817627
 30
0.0
 11
139.8323425481
 21
183.7373817627
 31
0.0
  0
LINE
  5
B6
330
1F
100
AcDbEntity
  8
0
  6
Continuous
 62
     7
370
    25
100
AcDbLine
 10
114.8323425481
 20
174.7373817627
 30
0.0
 11
139.8323425481
 21
174.7373817627
 31
0.0
  0
LINE
  5
B7
330
1F
100
AcDbEntity
  8
0
  6
Continuous
 62
     7
370
    25
100
AcDbLine
 10
161.832342548
 20
207.7373817627
 30
0.0
 11
117.8323425481
 21
207.7373817627
 31
0.0
  0
LINE
  5
B8
330
1F
100
AcDbEntity
  8
0
  6
Continuous
 62
     7
370
    25
100
AcDbLine
 10
160.7873425481
 20
157.7373817627
 30
0.0
 11
118.8773425481
 21
157.7373817627
 31
0.0
  0
LINE
  5
B9
330
1F
100
AcDbEntity
  8
0
  6
Continuous
 62
     7
370
    25
100
AcDbLine
 10
159.0552917405
 20
156.7373817627
 30
0.0
 11
120.6093933556
 21
156.7373817627
 31
0.0
  0
LINE
  5
BA
330
1F
100
AcDbEntity
  8
0
  6
Continuous
 62
     7
370
    25
100
AcDbLine
 10
159.0552917405
 20
158.7373817627
 30
0.0
 11
120.6093933556
 21
158.7373817627
 31
0.0
  0
LINE
  5
BB
330
1F
100
AcDbEntity
  8
0
  6
Continuous
 62
     7
370
    25
100
AcDbLine
 10
160.7873425481
 20
159.7373817627
 30
0.0
 11
118.8773425481
 21
159.7373817627
 31
0.0
  0
LINE
  5
BC
330
1F
100
AcDbEntity
  8
0
  6
Continuous
 62
     7
370
    25
100
AcDbLine
 10
159.0552917405
 20
160.7373817627
 30
0.0
 11
120.6093933556
 21
160.7373817627
 31
0.0
  0
LINE
  5
BD
330
1F
100
AcDbEntity
  8
0
  6
Continuous
 62
     7
370
    25
100
AcDbLine
 10
160.7873425481
 20
161.7373817627
 30
0.0
 11
118.8773425481
 21
161.7373817627
 31
0.0
  0
LINE
  5
BE
330
1F
100
AcDbEntity
  8
0
  6
Continuous
 62
     7
370
    25
100
AcDbLine
 10
159.0552917405
 20
162.7373817627
 30
0.0
 11
120.6093933556
 21
162.7373817627
 31
0.0
  0
LINE
  5
BF
330
1F
100
AcDbEntity
  8
0
  6
Continuous
 62
     7
370
    25
100
AcDbLine
 10
160.7873425481
 20
163.7373817627
 30
0.0
 11
118.8773425481
 21
163.7373817627
 31
0.0
  0
LINE
  5
C0
330
1F
100
AcDbEntity
  8
0
  6
Continuous
 62
     7
370
    25
100
AcDbLine
 10
159.8323425481
 20
258.7373817627
 30
0.0
 11
119.8323425481
 21
258.7373817627
 31
0.0
  0
LINE
  5
C1
330
1F
100
AcDbEntity
  8
0
  6
Continuous
 62
     1
370
    25
100
AcDbLine
 10
162.3323425481
 20
207.2373817627
 30
0.0
 11
117.3323425481
 21
207.2373817627
 31
0.0
  0
LINE
  5
C2
330
1F
100
AcDbEntity
  8
0
  6
Continuous
 62
     7
370
    25
100
AcDbLine
 10
221.0838357348
 20
86.2440552885
 30
0.0
 11
244.5838357348
 21
86.2440552885
 31
0.0
  0
LINE
  5
C3
330
1F
100
AcDbEntity
  8
0
  6
Continuous
 62
     7
370
    25
100
AcDbLine
 10
244.5838357348
 20
131.2440552885
 30
0.0
 11
221.0838357348
 21
131.2440552885
 31
0.0
  0
ARC
  5
C4
330
1F
100
AcDbEntity
  8
0
  6
Continuous
 62
     7
370
    25
100
AcDbCircle
 10
244.5838357348
 20
86.7440552885
 30
0.0
 40
0.5
100
AcDbArc
 50
270.0
 51
0.0
  0
ARC
  5
C5
330
1F
100
AcDbEntity
  8
0
  6
Continuous
 62
     7
370
    25
100
AcDbCircle
 10
244.5838357348
 20
130.7440552885
 30
0.0
 40
0.5
100
AcDbArc
 50
0.0
 51
90.0
  0
LINE
  5
C6
330
1F
100
AcDbEntity
  8
0
  6
Continuous
 62
     7
370
    25
100
AcDbLine
 10
195.0838357348
 20
129.6990552885
 30
0.0
 11
194.0838357348
 21
127.9670044809
 31
0.0
  0
LINE
  5
C7
330
1F
100
AcDbEntity
  8
0
  6
Continuous
 62
     7
370
    25
100
AcDbLine
 10
194.0838357348
 20
89.521106096
 30
0.0
 11
195.0838357348
 21
87.7890552885
 31
0.0
  0
LINE
  5
C8
330
1F
100
AcDbEntity
  8
0
  6
Continuous
 62
     7
370
    25
100
AcDbLine
 10
195.0838357348
 20
87.7890552885
 30
0.0
 11
196.0838357348
 21
89.521106096
 31
0.0
  0
LINE
  5
C9
330
1F
100
AcDbEntity
  8
0
  6
Continuous
 62
     7
370
    25
100
AcDbLine
 10
196.0838357348
 20
127.9670044809
 30
0.0
 11
195.0838357348
 21
129.6990552885
 31
0.0
  0
LINE
  5
CA
330
1F
100
AcDbEntity
  8
0
  6
Continuous
 62
     7
370
    25
100
AcDbLine
 10
197.0838357348
 20
129.6990552885
 30
0.0
 11
196.0838357348
 21
127.9670044809
 31
0.0
  0
LINE
  5
CB
330
1F
100
AcDbEntity
  8
0
  6
Continuous
 62
     7
370
    25
100
AcDbLine
 10
196.0838357348
 20
89.521106096
 30
0.0
 11
197.0838357348
 21
87.7890552885
 31
0.0
  0
LINE
  5
CC
330
1F
100
AcDbEntity
  8
0
  6
Continuous
 62
     7
370
    25
100
AcDbLine
 10
197.0838357348
 20
87.7890552885
 30
0.0
 11
198.0838357348
 21
89.521106096
 31
0.0
  0
LINE
  5
CD
330
1F
100
AcDbEntity
  8
0
  6
Continuous
 62
     7
370
    25
100
AcDbLine
 10
198.0838357348
 20
127.9670044809
 30
0.0
 11
197.0838357348
 21
129.6990552885
 31
0.0
  0
LINE
  5
CE
330
1F
100
AcDbEntity
  8
0
  6
Continuous
 62
     7
370
    25
100
AcDbLine
 10
199.0838357348
 20
129.6990552885
 30
0.0
 11
198.0838357348
 21
127.9670044809
 31
0.0
  0
LINE
  5
CF
330
1F
100
AcDbEntity
  8
0
  6
Continuous
 62
     7
370
    25
100
AcDbLine
 10
198.0838357348
 20
89.521106096
 30
0.0
 11
199.0838357348
 21
87.7890552885
 31
0.0
  0
LINE
  5
D0
330
1F
100
AcDbEntity
  8
0
  6
Continuous
 62
     7
370
    25
100
AcDbLine
 10
199.0838357348
 20
87.7890552885
 30
0.0
 11
200.0838357348
 21
89.521106096
 31
0.0
  0
LINE
  5
D1
330
1F
100
AcDbEntity
  8
0
  6
Continuous
 62
     7
370
    25
100
AcDbLine
 10
200.0838357348
 20
127.9670044809
 30
0.0
 11
199.0838357348
 21
129.6990552885
 31
0.0
  0
LINE
  5
D2
330
1F
100
AcDbEntity
  8
0
  6
Continuous
 62
     7
370
    25
100
AcDbLine
 10
201.0838357348
 20
129.6990552885
 30
0.0
 11
200.0838357348
 21
127.9670044809
 31
0.0
  0
LINE
  5
D3
330
1F
100
AcDbEntity
  8
0
  6
Continuous
 62
     7
370
    25
100
AcDbLine
 10
200.0838357348
 20
89.521106096
 30
0.0
 11
201.0838357348
 21
87.7890552885
 31
0.0
  0
LINE
  5
D4
330
1F
100
AcDbEntity
  8
0
  6
Continuous
 62
     7
370
    25
100
AcDbLine
 10
201.0838357348
 20
87.7890552885
 30
0.0
 11
212.0838357348
 21
87.7890552885
 31
0.0
  0
LINE
  5
D5
330
1F
100
AcDbEntity
  8
0
  6
Continuous
 62
     7
370
    25
100
AcDbLine
 10
212.0838357348
 20
129.6990552885
 30
0.0
 11
201.0838357348
 21
129.6990552885
 31
0.0
  0
LINE
  5
D6
330
1F
100
AcDbEntity
  8
0
  6
Continuous
 62
     7
370
    25
100
AcDbLine
 10
245.0838357348
 20
88.7440552885
 30
0.0
 11
296.0838357348
 21
88.7440552885
 31
0.0
  0
LINE
  5
D7
330
1F
100
AcDbEntity
  8
0
  6
Continuous
 62
     7
370
    25
100
AcDbLine
 10
296.0838357348
 20
128.7440552885
 30
0.0
 11
245.0838357348
 21
128.7440552885
 31
0.0
  0
LINE
  5
D8
330
1F
100
AcDbEntity
  8
0
  6
Continuous
 62
     7
370
    25
100
AcDbLine
 10
221.0838357348
 20
123.1778120182
 30
0.0
 11
212.0838357348
 21
123.1778120182
 31
0.0
  0
LINE
  5
D9
330
1F
100
AcDbEntity
  8
0
  6
Continuous
 62
     7
370
    25
100
AcDbLine
 10
221.0838357348
 20
123.1778120182
 30
0.0
 11
221.0838357348
 21
94.3102985587
 31
0.0
  0
LINE
  5
DA
330
1F
100
AcDbEntity
  8
0
  6
Continuous
 62
     7
370
    25
100
AcDbLine
 10
221.0838357348
 20
94.3102985587
 30
0.0
 11
212.0838357348
 21
94.3102985587
 31
0.0
  0
LINE
  5
DB
330
1F
100
AcDbEntity
  8
0
  6
Continuous
 62
     7
370
    25
100
AcDbLine
 10
212.0838357348
 20
123.1778120182
 30
0.0
 11
212.0838357348
 21
94.3102985587
 31
0.0
  0
LINE
  5
DC
330
1F
100
AcDbEntity
  8
0
  6
Continuous
 62
     7
370
    25
100
AcDbLine
 10
221.0838357348
 20
94.3102985587
 30
0.0
 11
221.0838357348
 21
79.876541829
 31
0.0
  0
LINE
  5
DD
330
1F
100
AcDbEntity
  8
0
  6
Continuous
 62
     7
370
    25
100
AcDbLine
 10
221.0838357348
 20
79.876541829
 30
0.0
 11
212.0838357348
 21
79.876541829
 31
0.0
  0
LINE
  5
DE
330
1F
100
AcDbEntity
  8
0
  6
Continuous
 62
     7
370
    25
100
AcDbLine
 10
212.0838357348
 20
94.3102985587
 30
0.0
 11
212.0838357348
 21
79.876541829
 31
0.0
  0
LINE
  5
DF
330
1F
100
AcDbEntity
  8
0
  6
Continuous
 62
     7
370
    25
100
AcDbLine
 10
221.0838357348
 20
137.6115687479
 30
0.0
 11
212.0838357348
 21
137.6115687479
 31
0.0
  0
LINE
  5
E0
330
1F
100
AcDbEntity
  8
0
  6
Continuous
 62
     7
370
    25
100
AcDbLine
 10
221.0838357348
 20
137.6115687479
 30
0.0
 11
221.0838357348
 21
123.1778120182
 31
0.0
  0
LINE
  5
E1
330
1F
100
AcDbEntity
  8
0
  6
Continuous
 62
     7
370
    25
100
AcDbLine
 10
212.0838357348
 20
137.6115687479
 30
0.0
 11
212.0838357348
 21
123.1778120182
 31
0.0
  0
LINE
  5
E2
330
1F
100
AcDbEntity
  8
0
  6
Continuous
 62
     7
370
    25
100
AcDbLine
 10
245.0838357348
 20
108.7440552885
 30
0.0
 11
245.0838357348
 21
130.7440552885
 31
0.0
  0
LINE
  5
E3
330
1F
100
AcDbEntity
  8
0
  6
Continuous
 62
     7
370
    25
100
AcDbLine
 10
245.0838357348
 20
86.7440552885
 30
0.0
 11
245.0838357348
 21
108.7440552885
 31
0.0
  0
LINE
  5
E4
330
1F
100
AcDbEntity
  8
0
  6
Continuous
 62
     7
370
    25
100
AcDbLine
 10
195.0838357348
 20
108.7440552885
 30
0.0
 11
195.0838357348
 21
129.6990552885
 31
0.0
  0
LINE
  5
E5
330
1F
100
AcDbEntity
  8
0
  6
Continuous
 62
     7
370
    25
100
AcDbLine
 10
195.0838357348
 20
87.7890552885
 30
0.0
 11
195.0838357348
 21
108.7440552885
 31
0.0
  0
LINE
  5
E6
330
1F
100
AcDbEntity
  8
0
  6
Continuous
 62
     7
370
    25
100
AcDbLine
 10
194.0838357348
 20
108.7440552885
 30
0.0
 11
194.0838357348
 21
127.9670044809
 31
0.0
  0
LINE
  5
E7
330
1F
100
AcDbEntity
  8
0
  6
Continuous
 62
     7
370
    25
100
AcDbLine
 10
194.0838357348
 20
89.521106096
 30
0.0
 11
194.0838357348
 21
108.7440552885
 31
0.0
  0
LINE
  5
E8
330
1F
100
AcDbEntity
  8
0
  6
Continuous
 62
     7
370
    25
100
AcDbLine
 10
196.0838357348
 20
108.7440552885
 30
0.0
 11
196.0838357348
 21
127.9670044809
 31
0.0
  0
LINE
  5
E9
330
1F
100
AcDbEntity
  8
0
  6
Continuous
 62
     7
370
    25
100
AcDbLine
 10
196.0838357348
 20
89.521106096
 30
0.0
 11
196.0838357348
 21
108.7440552885
 31
0.0
  0
LINE
  5
EA
330
1F
100
AcDbEntity
  8
0
  6
Continuous
 62
     7
370
    25
100
AcDbLine
 10
197.0838357348
 20
108.7440552885
 30
0.0
 11
197.0838357348
 21
129.6990552885
 31
0.0
  0
LINE
  5
EB
330
1F
100
AcDbEntity
  8
0
  6
Continuous
 62
     7
370
    25
100
AcDbLine
 10
197.0838357348
 20
87.7890552885
 30
0.0
 11
197.0838357348
 21
108.7440552885
 31
0.0
  0
LINE
  5
EC
330
1F
100
AcDbEntity
  8
0
  6
Continuous
 62
     7
370
    25
100
AcDbLine
 10
198.0838357348
 20
108.7440552885
 30
0.0
 11
198.0838357348
 21
127.9670044809
 31
0.0
  0
LINE
  5
ED
330
1F
100
AcDbEntity
  8
0
  6
Continuous
 62
     7
370
    25
100
AcDbLine
 10
198.0838357348
 20
89.521106096
 30
0.0
 11
198.0838357348
 21
108.7440552885
 31
0.0
  0
LINE
  5
EE
330
1F
100
AcDbEntity
  8
0
  6
Continuous
 62
     7
370
    25
100
AcDbLine
 10
199.0838357348
 20
108.7440552885
 30
0.0
 11
199.0838357348
 21
129.6990552885
 31
0.0
  0
LINE
  5
EF
330
1F
100
AcDbEntity
  8
0
  6
Continuous
 62
     7
370
    25
100
AcDbLine
 10
199.0838357348
 20
87.7890552885
 30
0.0
 11
199.0838357348
 21
108.7440552885
 31
0.0
  0
LINE
  5
F0
330
1F
100
AcDbEntity
  8
0
  6
Continuous
 62
     7
370
    25
100
AcDbLine
 10
200.0838357348
 20
108.7440552885
 30
0.0
 11
200.0838357348
 21
127.9670044809
 31
0.0
  0
LINE
  5
F1
330
1F
100
AcDbEntity
  8
0
  6
Continuous
 62
     7
370
    25
100
AcDbLine
 10
200.0838357348
 20
89.521106096
 30
0.0
 11
200.0838357348
 21
108.7440552885
 31
0.0
  0
LINE
  5
F2
330
1F
100
AcDbEntity
  8
0
  6
Continuous
 62
     7
370
    25
100
AcDbLine
 10
201.0838357348
 20
108.7440552885
 30
0.0
 11
201.0838357348
 21
129.6990552885
 31
0.0
  0
LINE
  5
F3
330
1F
100
AcDbEntity
  8
0
  6
Continuous
 62
     7
370
    25
100
AcDbLine
 10
201.0838357348
 20
87.7890552885
 30
0.0
 11
201.0838357348
 21
108.7440552885
 31
0.0
  0
LINE
  5
F4
330
1F
100
AcDbEntity
  8
0
  6
Continuous
 62
     7
370
    25
100
AcDbLine
 10
296.0838357348
 20
108.7440552885
 30
0.0
 11
296.0838357348
 21
128.7440552885
 31
0.0
  0
LINE
  5
F5
330
1F
100
AcDbEntity
  8
0
  6
Continuous
 62
     7
370
    25
100
AcDbLine
 10
296.0838357348
 20
88.7440552885
 30
0.0
 11
296.0838357348
 21
108.7440552885
 31
0.0
  0
LINE
  5
F6
330
1F
100
AcDbEntity
  8
0
  6
Continuous
 62
     1
370
    25
100
AcDbLine
 10
244.5838357348
 20
108.7440552885
 30
0.0
 11
244.5838357348
 21
131.2440552885
 31
0.0
  0
LINE
  5
F7
330
1F
100
AcDbEntity
  8
0
  6
Continuous
 62
     1
370
    25
100
AcDbLine
 10
244.5838357348
 20
86.2440552885
 30
0.0
 11
244.5838357348
 21
108.7440552885
 31
0.0
  0
LINE
  5
F8
330
1F
100
AcDbEntity
  8
0
  6
Continuous
 62
     7
370
    25
100
AcDbLine
 10
49.3063147
 20
131.2440552885
 30
0.0
 11
25.8063147
 21
131.2440552885
 31
0.0
  0
LINE
  5
F9
330
1F
100
AcDbEntity
  8
0
  6
Continuous
 62
     7
370
    25
100
AcDbLine
 10
25.8063147
 20
86.2440552885
 30
0.0
 11
49.3063147
 21
86.2440552885
 31
0.0
  0
ARC
  5
FA
330
1F
100
AcDbEntity
  8
0
  6
Continuous
 62
     7
370
    25
100
AcDbCircle
 10
25.8063147
 20
130.7440552885
 30
0.0
 40
0.5000000000000071
100
AcDbArc
 50
90.0
 51
180.0
  0
ARC
  5
FB
330
1F
100
AcDbEntity
  8
0
  6
Continuous
 62
     7
370
    25
100
AcDbCircle
 10
25.8063147
 20
86.7440552885
 30
0.0
 40
0.5000000000000071
100
AcDbArc
 50
180.0
 51
270.0
  0
LINE
  5
FC
330
1F
100
AcDbEntity
  8
0
  6
Continuous
 62
     7
370
    25
100
AcDbLine
 10
75.3063147
 20
87.7890552885
 30
0.0
 11
76.3063147
 21
89.521106096
 31
0.0
  0
LINE
  5
FD
330
1F
100
AcDbEntity
  8
0
  6
Continuous
 62
     7
370
    25
100
AcDbLine
 10
76.3063147
 20
127.9670044809
 30
0.0
 11
75.3063147
 21
129.6990552885
 31
0.0
  0
LINE
  5
FE
330
1F
100
AcDbEntity
  8
0
  6
Continuous
 62
     7
370
    25
100
AcDbLine
 10
75.3063147
 20
129.6990552885
 30
0.0
 11
74.3063147
 21
127.9670044809
 31
0.0
  0
LINE
  5
FF
330
1F
100
AcDbEntity
  8
0
  6
Continuous
 62
     7
370
    25
100
AcDbLine
 10
74.3063147
 20
89.521106096
 30
0.0
 11
75.3063147
 21
87.7890552885
 31
0.0
  0
LINE
  5
100
330
1F
100
AcDbEntity
  8
0
  6
Continuous
 62
     7
370
    25
100
AcDbLine
 10
73.3063147
 20
87.7890552885
 30
0.0
 11
74.3063147
 21
89.521106096
 31
0.0
  0
LINE
  5
101
330
1F
100
AcDbEntity
  8
0
  6
Continuous
 62
     7
370
    25
100
AcDbLine
 10
74.3063147
 20
127.9670044809
 30
0.0
 11
73.3063147
 21
129.6990552885
 31
0.0
  0
LINE
  5
102
330
1F
100
AcDbEntity
  8
0
  6
Continuous
 62
     7
370
    25
100
AcDbLine
 10
73.3063147
 20
129.6990552885
 30
0.0
 11
72.3063147
 21
127.9670044809
 31
0.0
  0
LINE
  5
103
330
1F
100
AcDbEntity
  8
0
  6
Continuous
 62
     7
370
    25
100
AcDbLine
 10
72.3063147
 20
89.521106096
 30
0.0
 11
73.3063147
 21
87.7890552885
 31
0.0
  0
LINE
  5
104
330
1F
100
AcDbEntity
  8
0
  6
Continuous
 62
     7
370
    25
100
AcDbLine
 10
71.3063147
 20
87.7890552885
 30
0.0
 11
72.3063147
 21
89.521106096
 31
0.0
  0
LINE
  5
105
330
1F
100
AcDbEntity
  8
0
  6
Continuous
 62
     7
370
    25
100
AcDbLine
 10
72.3063147
 20
127.9670044809
 30
0.0
 11
71.3063147
 21
129.6990552885
 31
0.0
  0
LINE
  5
106
330
1F
100
AcDbEntity
  8
0
  6
Continuous
 62
     7
370
    25
100
AcDbLine
 10
71.3063147
 20
129.6990552885
 30
0.0
 11
70.3063147
 21
127.9670044809
 31
0.0
  0
LINE
  5
107
330
1F
100
AcDbEntity
  8
0
  6
Continuous
 62
     7
370
    25
100
AcDbLine
 10
70.3063147
 20
89.521106096
 30
0.0
 11
71.3063147
 21
87.7890552885
 31
0.0
  0
LINE
  5
108
330
1F
100
AcDbEntity
  8
0
  6
Continuous
 62
     7
370
    25
100
AcDbLine
 10
69.3063147
 20
87.7890552885
 30
0.0
 11
70.3063147
 21
89.521106096
 31
0.0
  0
LINE
  5
109
330
1F
100
AcDbEntity
  8
0
  6
Continuous
 62
     7
370
    25
100
AcDbLine
 10
70.3063147
 20
127.9670044809
 30
0.0
 11
69.3063147
 21
129.6990552885
 31
0.0
  0
LINE
  5
10A
330
1F
100
AcDbEntity
  8
0
  6
Continuous
 62
     7
370
    25
100
AcDbLine
 10
69.3063147
 20
129.6990552885
 30
0.0
 11
58.3063147
 21
129.6990552885
 31
0.0
  0
LINE
  5
10B
330
1F
100
AcDbEntity
  8
0
  6
Continuous
 62
     7
370
    25
100
AcDbLine
 10
58.3063147
 20
87.7890552885
 30
0.0
 11
69.3063147
 21
87.7890552885
 31
0.0
  0
LINE
  5
10C
330
1F
100
AcDbEntity
  8
0
  6
Continuous
 62
     7
370
    25
100
AcDbLine
 10
25.3063147
 20
128.7440552885
 30
0.0
 11
-25.6936853
 21
128.7440552885
 31
0.0
  0
LINE
  5
10D
330
1F
100
AcDbEntity
  8
0
  6
Continuous
 62
     7
370
    25
100
AcDbLine
 10
-25.6936853
 20
88.7440552885
 30
0.0
 11
25.3063147
 21
88.7440552885
 31
0.0
  0
LINE
  5
10E
330
1F
100
AcDbEntity
  8
0
  6
Continuous
 62
     7
370
    25
100
AcDbLine
 10
49.3063147
 20
94.3102985587
 30
0.0
 11
58.3063147
 21
94.3102985587
 31
0.0
  0
LINE
  5
10F
330
1F
100
AcDbEntity
  8
0
  6
Continuous
 62
     7
370
    25
100
AcDbLine
 10
49.3063147
 20
94.3102985587
 30
0.0
 11
49.3063147
 21
123.1778120182
 31
0.0
  0
LINE
  5
110
330
1F
100
AcDbEntity
  8
0
  6
Continuous
 62
     7
370
    25
100
AcDbLine
 10
49.3063147
 20
123.1778120182
 30
0.0
 11
58.3063147
 21
123.1778120182
 31
0.0
  0
LINE
  5
111
330
1F
100
AcDbEntity
  8
0
  6
Continuous
 62
     7
370
    25
100
AcDbLine
 10
58.3063147
 20
94.3102985587
 30
0.0
 11
58.3063147
 21
123.1778120182
 31
0.0
  0
LINE
  5
112
330
1F
100
AcDbEntity
  8
0
  6
Continuous
 62
     7
370
    25
100
AcDbLine
 10
49.3063147
 20
123.1778120182
 30
0.0
 11
49.3063147
 21
137.6115687479
 31
0.0
  0
LINE
  5
113
330
1F
100
AcDbEntity
  8
0
  6
Continuous
 62
     7
370
    25
100
AcDbLine
 10
49.3063147
 20
137.6115687479
 30
0.0
 11
58.3063147
 21
137.6115687479
 31
0.0
  0
LINE
  5
114
330
1F
100
AcDbEntity
  8
0
  6
Continuous
 62
     7
370
    25
100
AcDbLine
 10
58.3063147
 20
123.1778120182
 30
0.0
 11
58.3063147
 21
137.6115687479
 31
0.0
  0
LINE
  5
115
330
1F
100
AcDbEntity
  8
0
  6
Continuous
 62
     7
370
    25
100
AcDbLine
 10
49.3063147
 20
79.876541829
 30
0.0
 11
58.3063147
 21
79.876541829
 31
0.0
  0
LINE
  5
116
330
1F
100
AcDbEntity
  8
0
  6
Continuous
 62
     7
370
    25
100
AcDbLine
 10
49.3063147
 20
79.876541829
 30
0.0
 11
49.3063147
 21
94.3102985587
 31
0.0
  0
LINE
  5
117
330
1F
100
AcDbEntity
  8
0
  6
Continuous
 62
     7
370
    25
100
AcDbLine
 10
58.3063147
 20
79.876541829
 30
0.0
 11
58.3063147
 21
94.3102985587
 31
0.0
  0
LINE
  5
118
330
1F
100
AcDbEntity
  8
0
  6
Continuous
 62
     7
370
    25
100
AcDbLine
 10
25.3063147
 20
130.7440552885
 30
0.0
 11
25.3063147
 21
86.7440552885
 31
0.0
  0
LINE
  5
119
330
1F
100
AcDbEntity
  8
0
  6
Continuous
 62
     7
370
    25
100
AcDbLine
 10
75.3063147
 20
129.6990552885
 30
0.0
 11
75.3063147
 21
87.7890552885
 31
0.0
  0
LINE
  5
11A
330
1F
100
AcDbEntity
  8
0
  6
Continuous
 62
     7
370
    25
100
AcDbLine
 10
76.3063147
 20
127.9670044809
 30
0.0
 11
76.3063147
 21
89.521106096
 31
0.0
  0
LINE
  5
11B
330
1F
100
AcDbEntity
  8
0
  6
Continuous
 62
     7
370
    25
100
AcDbLine
 10
74.3063147
 20
127.9670044809
 30
0.0
 11
74.3063147
 21
89.521106096
 31
0.0
  0
LINE
  5
11C
330
1F
100
AcDbEntity
  8
0
  6
Continuous
 62
     7
370
    25
100
AcDbLine
 10
73.3063147
 20
129.6990552885
 30
0.0
 11
73.3063147
 21
87.7890552885
 31
0.0
  0
LINE
  5
11D
330
1F
100
AcDbEntity
  8
0
  6
Continuous
 62
     7
370
    25
100
AcDbLine
 10
72.3063147
 20
127.9670044809
 30
0.0
 11
72.3063147
 21
89.521106096
 31
0.0
  0
LINE
  5
11E
330
1F
100
AcDbEntity
  8
0
  6
Continuous
 62
     7
370
    25
100
AcDbLine
 10
71.3063147
 20
129.6990552885
 30
0.0
 11
71.3063147
 21
87.7890552885
 31
0.0
  0
LINE
  5
11F
330
1F
100
AcDbEntity
  8
0
  6
Continuous
 62
     7
370
    25
100
AcDbLine
 10
70.3063147
 20
127.9670044809
 30
0.0
 11
70.3063147
 21
89.521106096
 31
0.0
  0
LINE
  5
120
330
1F
100
AcDbEntity
  8
0
  6
Continuous
 62
     7
370
    25
100
AcDbLine
 10
69.3063147
 20
129.6990552885
 30
0.0
 11
69.3063147
 21
87.7890552885
 31
0.0
  0
LINE
  5
121
330
1F
100
AcDbEntity
  8
0
  6
Continuous
 62
     7
370
    25
100
AcDbLine
 10
-25.6936853
 20
128.7440552885
 30
0.0
 11
-25.6936853
 21
88.7440552885
 31
0.0
  0
LINE
  5
122
330
1F
100
AcDbEntity
  8
0
  6
Continuous
 62
     1
370
    25
100
AcDbLine
 10
25.8063147
 20
131.2440552885
 30
0.0
 11
25.8063147
 21
86.2440552885
 31
0.0
  0
LINE
  5
123
330
1F
100
AcDbEntity
  8
0
  6
Continuous
 62
     7
370
    25
100
AcDbLine
 10
256.8678140574
 20
27.4590809905
 30
0.0
 11
220.8053682169
 21
48.2774878419
 31
0.0
  0
LINE
  5
124
330
1F
100
AcDbEntity
  8
0
  6
Continuous
 62
     7
370
    25
100
AcDbLine
 10
200.8069935642
 20
13.6355333467
 30
0.0
 11
236.8694394047
 21
-7.1828735048
 31
0.0
  0
SPLINE
  5
125
330
1F
100
AcDbEntity
  8
0
  6
Continuous
 62
     7
370
    25
100
AcDbSpline
210
0.0
220
0.0
230
1.0
 70
     8
 71
     3
 72
    13
 73
     9
 74
     0
 42
0.00000001
 43
0.00000001
 40
0.0
 40
0.0
 40
0.0
 40
0.0
 40
0.1673820317115124
 40
0.3365826250326945
 40
0.5063045072091833
 40
0.6766067607536035
 40
0.8474810883635787
 40
1.0
 40
1.0
 40
1.0
 40
1.0
 10
256.9130563780135
 20
30.1071025971769
 30
0.0
 10
256.6596123280468
 20
30.18043826639433
 30
0.0
 10
256.1499706253833
 20
30.32790637752513
 30
0.0
 10
255.3455131762108
 20
30.45915841283228
 30
0.0
 10
254.5128179539204
 20
30.52472140876096
 30
0.0
 10
253.6533206866928
 20
30.51495051080551
 30
0.0
 10
252.8048869836624
 20
30.44256971495608
 30
0.0
 10
252.2358384053619
 20
30.33753143792718
 30
0.0
 10
251.9674633767655
 20
30.28799322330666
 30
0.0
  0
SPLINE
  5
126
330
1F
100
AcDbEntity
  8
0
  6
Continuous
 62
     7
370
    25
100
AcDbSpline
210
0.0
220
0.0
230
1.0
 70
     8
 71
     3
 72
    14
 73
    10
 74
     0
 42
0.00000001
 43
0.00000001
 40
0.0
 40
0.0
 40
0.0
 40
0.0
 40
0.0347858611235805
 40
0.2067149144412417
 40
0.378290326821473
 40
0.5494050235846317
 40
0.719967022728566
 40
0.8899215018653478
 40
1.0
 40
1.0
 40
1.0
 40
1.0
 10
231.9719564608275
 20
-4.355616781127124
 30
0.0
 10
231.9907457149082
 20
-4.416204149703012
 30
0.0
 10
232.1024008220188
 20
-4.776244473755654
 30
0.0
 10
232.360524673887
 20
-5.387515710646602
 30
0.0
 10
232.7478658125672
 20
-6.18222910347683
 30
0.0
 10
233.1912357204084
 20
-6.916252701490136
 30
0.0
 10
233.6850223170478
 20
-7.588738605846602
 30
0.0
 10
234.1577345268269
 20
-8.136035140425571
 30
0.0
 10
234.484569742263
 20
-8.431418697406999
 30
0.0
 10
234.6130457882033
 20
-8.547531373288985
 30
0.0
  0
LINE
  5
127
330
1F
100
AcDbEntity
  8
0
  6
Continuous
 62
     7
370
    25
100
AcDbLine
 10
275.0882752217
 20
19.8273058045
 30
0.0
 11
258.4712658638
 21
29.4201011185
 31
0.0
  0
LINE
  5
128
330
1F
100
AcDbEntity
  8
0
  6
Continuous
 62
     7
370
    25
100
AcDbLine
 10
235.9730943795
 20
-9.5520976887
 30
0.0
 11
252.5901037374
 21
-19.1448930026
 31
0.0
  0
LINE
  5
129
330
1F
100
AcDbEntity
  8
0
  6
Continuous
 62
     7
370
    25
100
AcDbLine
 10
288.4579736245
 20
10.3251791939
 30
0.0
 11
287.8808200399
 21
10.6583628663
 31
0.0
  0
LWPOLYLINE
  5
12A
330
1F
100
AcDbEntity
  8
0
  6
Continuous
 62
     7
370
    25
100
AcDbPolyline
 90
       96
 70
   128
 43
0.0
 10
196.6640452668
 20
22.7924294761
 10
196.6949652472
 20
23.8895923885
 10
196.7875899832
 20
25.0176571361
 10
196.9415144503
 20
26.1716909789
 10
197.1560655762
 20
27.3466476203
 10
197.4303051831
 20
28.5373892741
 10
197.7630340913
 20
29.7387091299
 10
198.1527973617
 20
30.9453541217
 10
198.5978906588
 20
32.1520478978
 10
199.0963677028
 20
33.3535138936
 10
199.6460487805
 20
34.5444984037
 10
200.2445302763
 20
35.7197935561
 10
200.889195183
 20
36.8742600841
 10
201.5772245449
 20
38.0028497993
 10
202.3056097848
 20
39.1006276659
 10
203.0711658592
 20
40.1627933808
 10
203.8705451863
 20
41.1847023635
 10
204.7002522836
 20
42.161886066
 10
205.5566590532
 20
43.0900715127
 10
206.4360206461
 20
43.9651999846
 10
207.3344918377
 20
44.7834447678
 10
208.2481438423
 20
45.5412278859
 10
209.1729814921
 20
46.2352357462
 10
210.1049607072
 20
46.8624336289
 10
211.0400061798
 20
47.4200789573
 10
211.9740291939
 20
47.9057332901
 10
212.9029455045
 20
48.3172729846
 10
213.822693197
 20
48.6528984824
 10
214.7292504487
 20
48.9111421786
 10
215.6186531153
 20
49.0908748392
 10
216.4870120654
 20
49.191310539
 10
217.3305301862
 20
49.2120100983
 10
218.1455189875
 20
49.1528830031
 10
218.9284147308
 20
49.0141878013
 10
219.6757940121
 20
48.7965309715
 10
220.3843887319
 20
48.5008642719
 10
221.0511003859
 20
48.1284805775
 10
221.6730136137
 20
47.6810082276
 10
222.2474089469
 20
47.1604039049
 10
222.7717747009
 20
46.5689440796
 10
223.2438179576
 20
45.909215055
 10
223.6614745921
 20
45.1841016584
 10
224.022918298
 20
44.3967746261
 10
224.3265685741
 20
43.5506767389
 10
224.571097635
 20
42.6495077676
 10
224.7554362173
 20
41.6972082948
 10
224.8787782552
 20
40.6979424837
 10
224.9405844054
 20
39.6560798697
 10
224.9405844054
 20
38.5761762526
 10
224.8787782552
 20
37.4629537764
 10
224.7554362173
 20
36.3212802796
 10
224.571097635
 20
35.15614801
 10
224.3265685741
 20
33.9726517945
 10
224.022918298
 20
32.7759667609
 10
223.6614745921
 20
31.5713257085
 10
223.2438179576
 20
30.363996226
 10
222.7717747009
 20
29.1592576581
 10
222.2474089469
 20
27.96237802
 10
221.6730136137
 20
26.7785909618
 10
221.0511003859
 20
25.6130728832
 10
220.3843887319
 20
24.4709202981
 10
219.6757940121
 20
23.3571275491
 10
218.9284147308
 20
22.2765649687
 10
218.1455189875
 20
21.233957582
 10
217.3305301862
 20
20.2338644458
 10
216.4870120654
 20
19.280658713
 10
215.6186531153
 20
18.3785085097
 10
214.7292504487
 20
17.5313587092
 10
213.822693197
 20
16.742913682
 10
212.9029455045
 20
16.0166210977
 10
211.9740291939
 20
15.3556568488
 10
211.0400061798
 20
14.7629111639
 10
210.1049607072
 20
14.2409759691
 10
209.1729814921
 20
13.7921335542
 10
208.2481438423
 20
13.4183465927
 10
207.3344918377
 20
13.1212495601
 10
206.4360206461
 20
12.902141586
 10
205.5566590532
 20
12.7619807739
 10
204.7002522836
 20
12.7013800114
 10
203.8705451863
 20
12.72060429
 10
203.0711658592
 20
12.8195695471
 10
202.3056097848
 20
12.9978430326
 10
201.5772245449
 20
13.254645202
 10
200.889195183
 20
13.5888531248
 10
200.2445302763
 20
13.9990053946
 10
199.6460487805
 20
14.4833085201
 10
199.0963677028
 20
15.0396447669
 10
198.5978906588
 20
15.6655814181
 10
198.1527973617
 20
16.358381412
 10
197.7630340913
 20
17.1150153104
 10
197.4303051831
 20
17.932174546
 10
197.1560655762
 20
18.8062858892
 10
196.9415144503
 20
19.7335270736
 10
196.7875899832
 20
20.7098435094
 10
196.6949652472
 20
21.7309660132
 10
196.6640452668
 20
22.7924294761
  0
LWPOLYLINE
  5
12B
330
1F
100
AcDbEntity
  8
0
  6
Continuous
 62
     7
370
    25
100
AcDbPolyline
 90
       50
 70
   128
 43
0.0
 10
256.8678140574
 20
27.4590809905
 10
257.1135462265
 20
27.310073726
 10
257.7354594542
 20
26.8626013761
 10
258.3098547874
 20
26.3419970534
 10
258.8342205414
 20
25.7505372281
 10
259.3062637981
 20
25.0908082036
 10
259.7239204326
 20
24.3656948069
 10
260.0853641385
 20
23.5783677746
 10
260.3890144147
 20
22.7322698874
 10
260.6335434755
 20
21.8311009161
 10
260.8178820578
 20
20.8788014433
 10
260.9412240957
 20
19.8795356323
 10
261.0030302459
 20
18.8376730182
 10
261.0030302459
 20
17.7577694011
 10
260.9412240957
 20
16.6445469249
 10
260.8178820578
 20
15.5028734281
 10
260.6335434755
 20
14.3377411585
 10
260.3890144147
 20
13.154244943
 10
260.0853641385
 20
11.9575599094
 10
259.7239204326
 20
10.752918857
 10
259.3062637981
 20
9.5455893745
 10
258.8342205414
 20
8.3408508066
 10
258.3098547874
 20
7.1439711685
 10
257.7354594542
 20
5.9601841103
 10
257.1135462265
 20
4.7946660317
 10
256.4468345724
 20
3.6525134466
 10
255.7382398526
 20
2.5387206977
 10
254.9908605713
 20
1.4581581172
 10
254.2079648281
 20
0.4155507305
 10
253.3929760267
 20
-0.5845424057
 10
252.5494579059
 20
-1.5377481385
 10
251.6810989558
 20
-2.4398983418
 10
250.7916962892
 20
-3.2870481423
 10
249.8851390375
 20
-4.0754931695
 10
248.9653913451
 20
-4.8017857538
 10
248.0364750344
 20
-5.4627500027
 10
247.1024520203
 20
-6.0554956875
 10
246.1674065477
 20
-6.5774308824
 10
245.2354273326
 20
-7.0262732973
 10
244.3105896828
 20
-7.4000602588
 10
243.3969376782
 20
-7.6971572914
 10
242.4984664866
 20
-7.9162652654
 10
241.6191048937
 20
-8.0564260775
 10
240.7626981241
 20
-8.1170268401
 10
239.9329910268
 20
-8.0978025615
 10
239.1336116997
 20
-7.9988373044
 10
238.3680556253
 20
-7.8205638189
 10
237.6396703855
 20
-7.5637616495
 10
236.9516410235
 20
-7.2295537267
 10
236.8694394047
 20
-7.1828735048
  0
LWPOLYLINE
  5
12C
330
1F
100
AcDbEntity
  8
0
  6
Continuous
 62
     7
370
    25
100
AcDbPolyline
 90
       86
 70
   128
 43
0.0
 10
199.2803403572
 20
24.302784483
 10
199.3118154293
 20
25.30390338
 10
199.4060687396
 20
26.3358948576
 10
199.5625855092
 20
27.3931225359
 10
199.7805108979
 20
28.4698122042
 10
200.0586546727
 20
29.5600833568
 10
200.3954977087
 20
30.6579813107
 10
200.7892002861
 20
31.757509728
 10
201.237612138
 20
32.8526633658
 10
201.7382841944
 20
33.9374608747
 10
202.2884819579
 20
35.0059774669
 10
202.8852004394
 20
36.0523772752
 10
203.5251805693
 20
37.0709452269
 10
204.2049269981
 20
38.0561182569
 10
204.9207271866
 20
39.0025156918
 10
205.6686716823
 20
39.904968637
 10
206.4446754717
 20
40.7585482074
 10
207.2445002913
 20
41.5585924474
 10
208.0637777752
 20
42.3007317929
 10
208.898033314
 20
42.980912936
 10
209.7427104931
 20
43.5954209633
 10
210.5931959787
 20
44.1408996449
 10
211.4448447141
 20
44.6143697655
 10
212.2930052892
 20
45.0132453955
 10
213.133045345
 20
45.3353480145
 10
213.960376874
 20
45.5789184097
 10
214.7704812783
 20
45.742626284
 10
215.5589340487
 20
45.8255775218
 10
216.3214289294
 20
45.8273190722
 10
217.0538014378
 20
45.7478414235
 10
217.7520516093
 20
45.587578655
 10
218.4123658436
 20
45.3474060664
 10
219.0311377333
 20
45.0286353971
 10
219.6049877608
 20
44.6330076619
 10
220.1307817565
 20
44.1626836424
 10
220.6056480157
 20
43.6202320852
 10
221.0269929836
 20
43.0086156727
 10
221.3925154202
 20
42.3311748415
 10
221.7002189686
 20
41.5916095386
 10
221.9484230588
 20
40.7939590133
 10
222.1357720861
 20
39.942579756
 10
222.261242815
 20
39.0421217051
 10
222.324149968
 20
38.0975028501
 10
222.324149968
 20
37.1138823717
 10
222.261242815
 20
36.0966324639
 10
222.1357720861
 20
35.0513089929
 10
221.9484230588
 20
33.983621153
 10
221.7002189686
 20
32.899400285
 10
221.3925154202
 20
31.8045680272
 10
221.0269929836
 20
30.7051039737
 10
220.6056480157
 20
29.6070130161
 10
220.1307817565
 20
28.5162925462
 10
219.6049877608
 20
27.4388997012
 10
219.0311377333
 20
26.380718827
 10
218.4123658436
 20
25.3475293407
 10
217.7520516093
 20
24.344974165
 10
217.0538014378
 20
23.3785289086
 10
216.3214289294
 20
22.4534719603
 10
215.5589340487
 20
21.5748556604
 10
214.7704812783
 20
20.7474787065
 10
213.960376874
 20
19.9758599445
 10
213.133045345
 20
19.2642136886
 10
212.2930052892
 20
18.6164267039
 10
211.4448447141
 20
18.0360369781
 10
210.5931959787
 20
17.5262143989
 10
209.7427104931
 20
17.0897434401
 10
208.898033314
 20
16.729007955
 10
208.0637777752
 20
16.4459781556
 10
207.2445002913
 20
16.2421998526
 10
206.4446754717
 20
16.1187860123
 10
205.6686716823
 20
16.0764106784
 10
204.9207271866
 20
16.1153052902
 10
204.2049269981
 20
16.2352574189
 10
203.5251805693
 20
16.4356119275
 10
202.8852004394
 20
16.7152745492
 10
202.2884819579
 20
17.0727178637
 10
201.7382841944
 20
17.5059896396
 10
201.237612138
 20
18.0127234967
 10
200.7892002861
 20
18.5901518304
 10
200.3954977087
 20
19.2351209274
 10
200.0586546727
 20
19.9441081901
 10
199.7805108979
 20
20.7132413759
 10
199.5625855092
 20
21.5383197461
 10
199.4060687396
 20
22.4148370088
 10
199.3118154293
 20
23.3380059306
 10
199.2803403572
 20
24.302784483
  0
ARC
  5
12D
330
1F
100
AcDbEntity
  8
0
  6
Continuous
 62
     7
370
    25
100
AcDbCircle
 10
254.6802590784
 20
22.8531884244
 30
0.0
 40
7.582078844951252
100
AcDbArc
 50
47.6695819239
 51
72.3603892421
  0
ARC
  5
12E
330
1F
100
AcDbEntity
  8
0
  6
Continuous
 62
     7
370
    25
100
AcDbCircle
 10
239.7635167529
 20
-2.9860455487
 30
0.0
 40
7.581040644361654
100
AcDbArc
 50
227.7332639293
 51
252.0336371949
  0
LWPOLYLINE
  5
12F
330
1F
100
AcDbEntity
  8
0
  6
Continuous
 62
     7
370
    25
100
AcDbPolyline
 90
       53
 70
   128
 43
0.0
 10
275.0882752217
 20
19.8273058045
 10
275.1763309268
 20
19.7756703271
 10
275.8483489041
 20
19.3247772111
 10
276.4739057766
 20
18.8004403476
 10
277.0505813862
 20
18.2046882939
 10
277.576144687
 20
17.5398258991
 10
278.0485623768
 20
16.8084253865
 10
278.4660067633
 20
16.0133164028
 10
278.8268628352
 20
15.15757507
 10
279.1297345106
 20
14.2445120852
 10
279.3734500376
 20
13.2776599116
 10
279.5570665284
 20
12.2607591125
 10
279.6798736063
 20
11.1977438796
 10
279.7413961546
 20
10.0927268123
 10
279.7413961546
 20
8.9499830068
 10
279.6798736063
 20
7.7739335171
 10
279.5570665284
 20
6.5691282501
 10
279.3734500376
 20
5.3402283634
 10
279.1297345106
 20
4.0919882318
 10
278.8268628352
 20
2.829237054
 10
278.4660067633
 20
1.5568601689
 10
278.0485623768
 20
0.2797801556
 10
277.576144687
 20
-0.9970622116
 10
277.0505813862
 20
-2.2687270774
 10
276.4739057766
 20
-3.5302946177
 10
275.8483489041
 20
-4.7768840726
 10
275.1763309268
 20
-6.0036726297
 10
274.4604517517
 20
-7.2059140825
 10
273.7034809763
 20
-8.3789571923
 10
272.9083471733
 20
-9.5182636832
 10
272.078126561
 20
-10.6194257997
 10
271.2160311018
 20
-11.6781833595
 10
270.3253960754
 20
-12.6904402353
 10
269.4096671757
 20
-13.6522802019
 10
268.47238718
 20
-14.5599820873
 10
267.5171822424
 20
-15.4100341692
 10
266.5477478654
 20
-16.1991477614
 10
265.5678346021
 20
-16.9242699365
 10
264.5812335467
 20
-17.5825953378
 10
263.591761667
 20
-18.1715770321
 10
262.6032470374
 20
-18.6889363638
 10
261.619514029
 20
-19.1326717701
 10
260.6443685137
 20
-19.5010665248
 10
259.6815831401
 20
-19.7926953804
 10
258.7348827377
 20
-20.0064300812
 10
257.8079299065
 20
-20.1414437294
 10
256.9043108469
 20
-20.1972139834
 10
256.0275214855
 20
-20.1735250788
 10
255.18095395
 20
-20.0704686635
 10
254.3678834458
 20
-19.8884434427
 10
253.5914555847
 20
-19.6281536365
 10
252.8546742152
 20
-19.2906062558
 10
252.5901037374
 20
-19.1448930026
  0
LINE
  5
130
330
1F
100
AcDbEntity
  8
0
  6
Continuous
 62
     7
370
    25
100
AcDbLine
 10
263.8391894795
 20
-23.2302964764
 30
0.0
 11
270.2031505102
 21
-26.9041329796
 31
0.0
  0
LINE
  5
131
330
1F
100
AcDbEntity
  8
0
  6
Continuous
 62
     7
370
    25
100
AcDbLine
 10
263.8391894795
 20
-23.2302964764
 30
0.0
 11
281.5168590092
 21
-1.2394436399
 31
0.0
  0
LINE
  5
132
330
1F
100
AcDbEntity
  8
0
  6
Continuous
 62
     7
370
    25
100
AcDbLine
 10
281.5168590092
 20
-1.2394436399
 30
0.0
 11
287.8808200399
 21
-4.9132801431
 31
0.0
  0
LINE
  5
133
330
1F
100
AcDbEntity
  8
0
  6
Continuous
 62
     7
370
    25
100
AcDbLine
 10
270.2031505102
 20
-26.9041329796
 30
0.0
 11
287.8808200399
 21
-4.9132801431
 31
0.0
  0
LINE
  5
134
330
1F
100
AcDbEntity
  8
0
  6
Continuous
 62
     7
370
    25
100
AcDbLine
 10
246.1615199499
 20
-15.433750576
 30
0.0
 11
246.1615199499
 21
-21.6496464355
 31
0.0
  0
LINE
  5
135
330
1F
100
AcDbEntity
  8
0
  6
Continuous
 62
     7
370
    25
100
AcDbLine
 10
281.5168590092
 20
22.3320592374
 30
0.0
 11
268.7760424299
 21
23.4712802311
 31
0.0
  0
LINE
  5
136
330
1F
100
AcDbEntity
  8
0
  6
Continuous
 62
     7
370
    25
100
AcDbLine
 10
281.5168590092
 20
-1.2394436399
 30
0.0
 11
281.5168590092
 21
22.3320592374
 31
0.0
  0
LINE
  5
137
330
1F
100
AcDbEntity
  8
0
  6
Continuous
 62
     7
370
    25
100
AcDbLine
 10
246.1615199499
 20
-21.6496464355
 30
0.0
 11
263.8391894795
 21
-23.2302964764
 31
0.0
  0
LINE
  5
138
330
1F
100
AcDbEntity
  8
0
  6
Continuous
 62
     7
370
    25
100
AcDbLine
 10
281.5168590092
 20
22.3320592374
 30
0.0
 11
287.8808200399
 21
18.6582227342
 31
0.0
  0
LINE
  5
139
330
1F
100
AcDbEntity
  8
0
  6
Continuous
 62
     7
370
    25
100
AcDbLine
 10
287.8808200399
 20
-4.9132801431
 30
0.0
 11
287.8808200399
 21
18.6582227342
 31
0.0
  0
LWPOLYLINE
  5
13A
330
1F
100
AcDbEntity
  8
0
  6
Continuous
 62
     7
370
    25
100
AcDbPolyline
 90
       47
 70
   128
 43
0.0
 10
288.4579736245
 20
10.3251791939
 10
288.8742998915
 20
10.064933624
 10
289.5016570729
 20
9.5885494222
 10
290.0806939784
 20
9.0391356567
 10
290.608981926
 20
8.4189967598
 10
291.0843050925
 20
7.7307338094
 10
291.5046698073
 20
6.9772336196
 10
291.8683129147
 20
6.161656632
 10
292.1737091691
 20
5.28742366
 10
292.4195776326
 20
4.3582015404
 10
292.6048870473
 20
3.3778877538
 10
292.7288601612
 20
2.3505940768
 10
292.7909769879
 20
1.2806293362
 10
292.7909769879
 20
0.1724813359
 10
292.7288601612
 20
-0.9692019663
 10
292.6048870473
 20
-2.1396319538
 10
292.4195776326
 20
-3.3338994365
 10
292.1737091691
 20
-4.5469952416
 10
291.8683129147
 20
-5.7738312237
 10
291.5046698073
 20
-7.0092616062
 10
291.0843050925
 20
-8.2481045649
 10
290.608981926
 20
-9.4851639619
 10
290.0806939784
 20
-10.71525114
 10
289.5016570729
 20
-11.9332066863
 10
288.8742998915
 20
-13.1339220719
 10
288.2012537883
 20
-14.3123610791
 10
287.4853417525
 20
-15.4635809253
 10
286.729566568
 20
-16.5827529943
 10
285.9370982186
 20
-17.6651830895
 10
285.1112605918
 20
-18.706331123
 10
284.2555175379
 20
-19.701830158
 10
283.3734583404
 20
-20.6475047257
 10
282.4687826622
 20
-21.5393883383
 10
281.5452850275
 20
-22.3737401259
 10
280.6068389064
 20
-23.1470605272
 10
279.6573804679
 20
-23.8561059677
 10
278.7008920707
 20
-24.4979024644
 10
277.7413855596
 20
-25.0697580997
 10
276.7828854384
 20
-25.5692743124
 10
275.8294119896
 20
-25.9943559579
 10
274.8849644122
 20
-26.343220096
 10
273.9535040476
 20
-26.6144034694
 10
273.0389377643
 20
-26.8067686406
 10
272.1451015711
 20
-26.9195087634
 10
271.2757445276
 20
-26.9521509664
 10
270.4345130195
 20
-26.9045583369
 10
270.2230691204
 20
-26.8793544179
  0
LINE
  5
13B
330
1F
100
AcDbEntity
  8
0
  6
Continuous
 62
     7
370
    25
100
AcDbLine
 10
246.1615199499
 20
-21.6496464355
 30
0.0
 11
252.5254809805
 21
-25.3234829387
 31
0.0
  0
LINE
  5
13C
330
1F
100
AcDbEntity
  8
0
  6
Continuous
 62
     7
370
    25
100
AcDbLine
 10
252.5254809805
 20
-25.3234829387
 30
0.0
 11
270.2031505102
 21
-26.9041329796
 31
0.0
  0
LWPOLYLINE
  5
13D
330
1F
100
AcDbEntity
  8
0
  6
Continuous
 62
     7
370
    25
100
AcDbPolyline
 90
       51
 70
   128
 43
0.0
 10
289.1411983478
 20
9.8756057181
 10
289.6154673507
 20
9.6498820293
 10
290.2885134539
 20
9.2485255122
 10
290.9158706353
 20
8.7721413104
 10
291.4949075408
 20
8.2227275449
 10
292.0231954884
 20
7.6025886479
 10
292.4985186548
 20
6.9143256975
 10
292.9188833696
 20
6.1608255077
 10
293.282526477
 20
5.3452485202
 10
293.5879227315
 20
4.4710155481
 10
293.833791195
 20
3.5417934286
 10
294.0191006097
 20
2.5614796419
 10
294.1430737236
 20
1.534185965
 10
294.2051905503
 20
0.4642212244
 10
294.2051905503
 20
-0.6439267759
 10
294.1430737236
 20
-1.7856100781
 10
294.0191006097
 20
-2.9560400656
 10
293.833791195
 20
-4.1503075484
 10
293.5879227315
 20
-5.3634033534
 10
293.282526477
 20
-6.5902393355
 10
292.9188833696
 20
-7.8256697181
 10
292.4985186548
 20
-9.0645126768
 10
292.0231954884
 20
-10.3015720737
 10
291.4949075408
 20
-11.5316592519
 10
290.9158706353
 20
-12.7496147981
 10
290.2885134539
 20
-13.9503301837
 10
289.6154673507
 20
-15.1287691909
 10
288.8995553149
 20
-16.2799890371
 10
288.1437801304
 20
-17.3991611061
 10
287.3513117809
 20
-18.4815912013
 10
286.5254741542
 20
-19.5227392348
 10
285.6697311002
 20
-20.5182382698
 10
284.7876719028
 20
-21.4639128375
 10
283.8829962246
 20
-22.3557964501
 10
282.9594985899
 20
-23.1901482377
 10
282.0210524687
 20
-23.963468639
 10
281.0715940302
 20
-24.6725140795
 10
280.1151056331
 20
-25.3143105762
 10
279.155599122
 20
-25.8861662115
 10
278.1970990007
 20
-26.3856824242
 10
277.2436255519
 20
-26.8107640697
 10
276.2991779746
 20
-27.1596282078
 10
275.36771761
 20
-27.4308115812
 10
274.4531513267
 20
-27.6231767524
 10
273.5593151335
 20
-27.7359168752
 10
272.68995809
 20
-27.7685590782
 10
271.8487265818
 20
-27.7209664487
 10
271.0391490262
 20
-27.5933386068
 10
270.2646210728
 20
-27.3862108679
 10
269.528391361
 20
-27.1004519979
 10
268.9229194712
 20
-26.7896610329
  0
LWPOLYLINE
  5
13E
330
1F
100
AcDbEntity
  8
0
  6
Continuous
 62
     7
370
    25
100
AcDbPolyline
 90
       52
 70
   128
 43
0.0
 10
290.5554119102
 20
9.0591976062
 10
291.029680913
 20
8.8334739174
 10
291.7027270163
 20
8.4321174003
 10
292.3300841976
 20
7.9557331986
 10
292.9091211031
 20
7.4063194331
 10
293.4374090507
 20
6.7861805361
 10
293.9127322172
 20
6.0979175857
 10
294.333096932
 20
5.3444173959
 10
294.6967400394
 20
4.5288404083
 10
295.0021362939
 20
3.6546074363
 10
295.2480047574
 20
2.7253853167
 10
295.4333141721
 20
1.7450715301
 10
295.557287286
 20
0.7177778532
 10
295.6194041127
 20
-0.3521868875
 10
295.6194041127
 20
-1.4603348878
 10
295.557287286
 20
-2.6020181899
 10
295.4333141721
 20
-3.7724481774
 10
295.2480047574
 20
-4.9667156602
 10
295.0021362939
 20
-6.1798114653
 10
294.6967400394
 20
-7.4066474473
 10
294.333096932
 20
-8.6420778299
 10
293.9127322172
 20
-9.8809207886
 10
293.4374090507
 20
-11.1179801855
 10
292.9091211031
 20
-12.3480673637
 10
292.3300841976
 20
-13.5660229099
 10
291.7027270163
 20
-14.7667382955
 10
291.029680913
 20
-15.9451773027
 10
290.3137688772
 20
-17.0963971489
 10
289.5579936927
 20
-18.2155692179
 10
288.7655253433
 20
-19.2979993131
 10
287.9396877166
 20
-20.3391473466
 10
287.0839446626
 20
-21.3346463817
 10
286.2018854651
 20
-22.2803209493
 10
285.297209787
 20
-23.1722045619
 10
284.3737121523
 20
-24.0065563495
 10
283.4352660311
 20
-24.7798767508
 10
282.4858075926
 20
-25.4889221913
 10
281.5293191955
 20
-26.130718688
 10
280.5698126844
 20
-26.7025743233
 10
279.6113125631
 20
-27.202090536
 10
278.6578391143
 20
-27.6271721815
 10
277.7133915369
 20
-27.9760363197
 10
276.7819311724
 20
-28.247219693
 10
275.8673648891
 20
-28.4395848642
 10
274.9735286959
 20
-28.552324987
 10
274.1041716524
 20
-28.58496719
 10
273.2629401442
 20
-28.5373745605
 10
272.4533625886
 20
-28.4097467186
 10
271.6788346352
 20
-28.2026189798
 10
270.9426049234
 20
-27.9168601097
 10
270.2477614565
 20
-27.5536686804
 10
269.6498789834
 20
-27.1541713762
  0
LWPOLYLINE
  5
13F
330
1F
100
AcDbEntity
  8
0
  6
Continuous
 62
     7
370
    25
100
AcDbPolyline
 90
       52
 70
   128
 43
0.0
 10
291.9696254726
 20
8.2427894944
 10
292.4438944754
 20
8.0170658056
 10
293.1169405786
 20
7.6157092885
 10
293.74429776
 20
7.1393250868
 10
294.3233346655
 20
6.5899113213
 10
294.8516226131
 20
5.9697724243
 10
295.3269457796
 20
5.2815094739
 10
295.7473104944
 20
4.5280092841
 10
296.1109536018
 20
3.7124322965
 10
296.4163498562
 20
2.8381993245
 10
296.6622183197
 20
1.9089772049
 10
296.8475277345
 20
0.9286634183
 10
296.9715008483
 20
-0.0986302587
 10
297.0336176751
 20
-1.1685949993
 10
297.0336176751
 20
-2.2767429996
 10
296.9715008483
 20
-3.4184263018
 10
296.8475277345
 20
-4.5888562893
 10
296.6622183197
 20
-5.783123772
 10
296.4163498562
 20
-6.9962195771
 10
296.1109536018
 20
-8.2230555591
 10
295.7473104944
 20
-9.4584859417
 10
295.3269457796
 20
-10.6973289004
 10
294.8516226131
 20
-11.9343882973
 10
294.3233346655
 20
-13.1644754755
 10
293.74429776
 20
-14.3824310218
 10
293.1169405786
 20
-15.5831464073
 10
292.4438944754
 20
-16.7615854145
 10
291.7279824396
 20
-17.9128052607
 10
290.9722072551
 20
-19.0319773297
 10
290.1797389057
 20
-20.114407425
 10
289.353901279
 20
-21.1555554584
 10
288.498158225
 20
-22.1510544935
 10
287.6160990275
 20
-23.0967290612
 10
286.7114233493
 20
-23.9886126737
 10
285.7879257146
 20
-24.8229644613
 10
284.8494795935
 20
-25.5962848627
 10
283.900021155
 20
-26.3053303031
 10
282.9435327578
 20
-26.9471267998
 10
281.9840262467
 20
-27.5189824352
 10
281.0255261255
 20
-28.0184986479
 10
280.0720526767
 20
-28.4435802934
 10
279.1276050993
 20
-28.7924444315
 10
278.1961447347
 20
-29.0636278048
 10
277.2815784514
 20
-29.2559929761
 10
276.3877422582
 20
-29.3687330988
 10
275.5183852148
 20
-29.4013753018
 10
274.6771537066
 20
-29.3537826724
 10
273.867576151
 20
-29.2261548304
 10
273.0930481976
 20
-29.0190270916
 10
272.3568184858
 20
-28.7332682215
 10
271.6619750188
 20
-28.3700767923
 10
271.0640925458
 20
-27.970579488
  0
LWPOLYLINE
  5
140
330
1F
100
AcDbEntity
  8
0
  6
Continuous
 62
     1
370
    25
100
AcDbPolyline
 90
       65
 70
   128
 43
0.0
 10
252.2848659789
 20
30.1047606013
 10
252.8787464127
 20
30.1767503146
 10
253.7766820186
 20
30.2215798207
 10
254.6468013241
 20
30.1855402569
 10
255.4856006657
 20
30.0687767419
 10
256.2897024947
 20
29.8717594412
 10
257.0558689766
 20
29.5952816738
 10
257.7810150295
 20
29.2404567182
 10
258.4622207462
 20
28.8087133292
 10
259.0967431517
 20
28.3017899851
 10
259.6820272482
 20
27.7217278872
 10
260.2157163032
 20
27.0708627409
 10
260.6956613393
 20
26.3518153505
 10
261.1199297872
 20
25.567481066
 10
261.4868132676
 20
24.7210181246
 10
261.7948344702
 20
23.8158349341
 10
262.0427531024
 20
22.8555763474
 10
262.2295708832
 20
21.8441089872
 10
262.3545355636
 20
20.7855056754
 10
262.4171439547
 20
19.6840290339
 10
262.4171439547
 20
18.5441143205
 10
262.3545355636
 20
17.3703515693
 10
262.2295708832
 20
16.1674671087
 10
262.0427531024
 20
14.9403045299
 10
261.7948344702
 20
13.6938051833
 10
261.4868132676
 20
12.4329882821
 10
261.1199297872
 20
11.1629306908
 10
260.6956613393
 20
9.888746483
 10
260.2157163032
 20
8.615566349
 10
259.6820272482
 20
7.3485169356
 10
259.0967431517
 20
6.0927002038
 10
258.4622207462
 20
4.8531728842
 10
257.7810150295
 20
3.6349261159
 10
257.0558689766
 20
2.4428653487
 10
256.2897024947
 20
1.2817905904
 10
255.4856006657
 20
0.1563770795
 10
254.6468013241
 20
-0.9288435412
 10
253.7766820186
 20
-1.9695014711
 10
252.8787464127
 20
-2.9614063482
 10
251.956610176
 20
-3.9005641215
 10
251.0139864258
 20
-4.7831931342
 10
250.0546707751
 20
-5.6057393507
 10
249.0825260496
 20
-6.3648906678
 10
248.1014667329
 20
-7.0575902511
 10
247.1154432046
 20
-7.6810488437
 10
246.1284258336
 20
-8.232755998
 10
245.1443889902
 20
-8.710490184
 10
244.1672950437
 20
-9.1123277348
 10
243.2010784065
 20
-9.4366505924
 10
242.249629692
 20
-9.682152823
 10
241.3167800483
 20
-9.8478458758
 10
240.4062857316
 20
-9.9330625635
 10
239.5218129814
 20
-9.9374597485
 10
238.6669232571
 20
-9.8610197248
 10
237.845058898
 20
-9.7040502894
 10
237.0595292617
 20
-9.467183503
 10
236.3134973988
 20
-9.1513731443
 10
235.6099673164
 20
-8.7578908704
 10
234.9517718818
 20
-8.2883210954
 10
234.3415614157
 20
-7.744554611
 10
233.7817930203
 20
-7.128780973
 10
233.2747206853
 20
-6.4434796845
 10
232.8223862121
 20
-5.6914102119
 10
232.4266109919
 20
-4.8756008736
 10
232.2864913262
 20
-4.5371938939
  0
LWPOLYLINE
  5
141
330
1F
100
AcDbEntity
  8
0
  6
Continuous
 62
     1
370
    25
100
AcDbPolyline
 90
       49
 70
   128
 43
0.0
 10
259.7860695315
 20
28.4584198405
 10
259.8568964187
 20
28.3932356615
 10
260.4335720283
 20
27.7974836078
 10
260.9591353292
 20
27.132621213
 10
261.431553019
 20
26.4012207004
 10
261.8489974054
 20
25.6061117167
 10
262.2098534774
 20
24.7503703839
 10
262.5127251527
 20
23.8373073991
 10
262.7564406797
 20
22.8704552255
 10
262.9400571705
 20
21.8535544265
 10
263.0628642484
 20
20.7905391935
 10
263.1243867967
 20
19.6855221262
 10
263.1243867967
 20
18.5427783207
 10
263.0628642484
 20
17.366728831
 10
262.9400571705
 20
16.161923564
 10
262.7564406797
 20
14.9330236773
 10
262.5127251527
 20
13.6847835457
 10
262.2098534774
 20
12.4220323679
 10
261.8489974054
 20
11.1496554828
 10
261.431553019
 20
9.8725754695
 10
260.9591353292
 20
8.5957331023
 10
260.4335720283
 20
7.3240682365
 10
259.8568964187
 20
6.0625006962
 10
259.2313395462
 20
4.8159112413
 10
258.5593215689
 20
3.5891226842
 10
257.8434423938
 20
2.3868812314
 10
257.0864716184
 20
1.2138381216
 10
256.2913378154
 20
0.0745316307
 10
255.4611172032
 20
-1.0266304858
 10
254.5990217439
 20
-2.0853880456
 10
253.7083867175
 20
-3.0976449214
 10
252.7926578178
 20
-4.059484888
 10
251.8553778221
 20
-4.9671867734
 10
250.9001728845
 20
-5.8172388553
 10
249.9307385075
 20
-6.6063524474
 10
248.9508252443
 20
-7.3314746226
 10
247.9642241888
 20
-7.9898000238
 10
246.9747523091
 20
-8.5787817182
 10
245.9862376795
 20
-9.0961410499
 10
245.0025046711
 20
-9.5398764562
 10
244.0273591558
 20
-9.9082712109
 10
243.0645737822
 20
-10.1999000664
 10
242.1178733798
 20
-10.4136347673
 10
241.1909205486
 20
-10.5486484155
 10
240.287301489
 20
-10.6044186695
 10
239.4105121276
 20
-10.5807297649
 10
238.5639445922
 20
-10.4776733496
 10
237.750874088
 20
-10.2956481287
 10
237.4250796064
 20
-10.1974177457
  0
LINE
  5
142
330
1F
100
AcDbEntity
  8
0
  6
Continuous
 62
     7
370
    25
100
AcDbLine
 10
117.3323425481
 20
26.0642736219
 30
0.0
 11
117.3323425481
 21
2.5642736219
 31
0.0
  0
LINE
  5
143
330
1F
100
AcDbEntity
  8
0
  6
Continuous
 62
     7
370
    25
100
AcDbLine
 10
162.3323425481
 20
2.5642736219
 30
0.0
 11
162.3323425481
 21
26.0642736219
 31
0.0
  0
ARC
  5
144
330
1F
100
AcDbEntity
  8
0
  6
Continuous
 62
     7
370
    25
100
AcDbCircle
 10
117.8323425481
 20
2.5642736219
 30
0.0
 40
0.5000000000000075
100
AcDbArc
 50
180.0
 51
270.0
  0
ARC
  5
145
330
1F
100
AcDbEntity
  8
0
  6
Continuous
 62
     7
370
    25
100
AcDbCircle
 10
161.8323425481
 20
2.5642736219
 30
0.0
 40
0.5000000000000075
100
AcDbArc
 50
270.0
 51
0.0
  0
LINE
  5
146
330
1F
100
AcDbEntity
  8
0
  6
Continuous
 62
     7
370
    25
100
AcDbLine
 10
160.7873425481
 20
52.0642736219
 30
0.0
 11
159.0552917405
 21
53.0642736219
 31
0.0
  0
LINE
  5
147
330
1F
100
AcDbEntity
  8
0
  6
Continuous
 62
     7
370
    25
100
AcDbLine
 10
120.6093933556
 20
53.0642736219
 30
0.0
 11
118.8773425481
 21
52.0642736219
 31
0.0
  0
LINE
  5
148
330
1F
100
AcDbEntity
  8
0
  6
Continuous
 62
     7
370
    25
100
AcDbLine
 10
118.8773425481
 20
52.0642736219
 30
0.0
 11
120.6093933556
 21
51.0642736219
 31
0.0
  0
LINE
  5
149
330
1F
100
AcDbEntity
  8
0
  6
Continuous
 62
     7
370
    25
100
AcDbLine
 10
159.0552917405
 20
51.0642736219
 30
0.0
 11
160.7873425481
 21
52.0642736219
 31
0.0
  0
LINE
  5
14A
330
1F
100
AcDbEntity
  8
0
  6
Continuous
 62
     7
370
    25
100
AcDbLine
 10
160.7873425481
 20
50.0642736219
 30
0.0
 11
159.0552917405
 21
51.0642736219
 31
0.0
  0
LINE
  5
14B
330
1F
100
AcDbEntity
  8
0
  6
Continuous
 62
     7
370
    25
100
AcDbLine
 10
120.6093933556
 20
51.0642736219
 30
0.0
 11
118.8773425481
 21
50.0642736219
 31
0.0
  0
LINE
  5
14C
330
1F
100
AcDbEntity
  8
0
  6
Continuous
 62
     7
370
    25
100
AcDbLine
 10
118.8773425481
 20
50.0642736219
 30
0.0
 11
120.6093933556
 21
49.0642736219
 31
0.0
  0
LINE
  5
14D
330
1F
100
AcDbEntity
  8
0
  6
Continuous
 62
     7
370
    25
100
AcDbLine
 10
159.0552917405
 20
49.0642736219
 30
0.0
 11
160.7873425481
 21
50.0642736219
 31
0.0
  0
LINE
  5
14E
330
1F
100
AcDbEntity
  8
0
  6
Continuous
 62
     7
370
    25
100
AcDbLine
 10
160.7873425481
 20
48.0642736219
 30
0.0
 11
159.0552917405
 21
49.0642736219
 31
0.0
  0
LINE
  5
14F
330
1F
100
AcDbEntity
  8
0
  6
Continuous
 62
     7
370
    25
100
AcDbLine
 10
120.6093933556
 20
49.0642736219
 30
0.0
 11
118.8773425481
 21
48.0642736219
 31
0.0
  0
LINE
  5
150
330
1F
100
AcDbEntity
  8
0
  6
Continuous
 62
     7
370
    25
100
AcDbLine
 10
118.8773425481
 20
48.0642736219
 30
0.0
 11
120.6093933556
 21
47.0642736219
 31
0.0
  0
LINE
  5
151
330
1F
100
AcDbEntity
  8
0
  6
Continuous
 62
     7
370
    25
100
AcDbLine
 10
159.0552917405
 20
47.0642736219
 30
0.0
 11
160.7873425481
 21
48.0642736219
 31
0.0
  0
LINE
  5
152
330
1F
100
AcDbEntity
  8
0
  6
Continuous
 62
     7
370
    25
100
AcDbLine
 10
160.7873425481
 20
46.0642736219
 30
0.0
 11
159.0552917405
 21
47.0642736219
 31
0.0
  0
LINE
  5
153
330
1F
100
AcDbEntity
  8
0
  6
Continuous
 62
     7
370
    25
100
AcDbLine
 10
120.6093933556
 20
47.0642736219
 30
0.0
 11
118.8773425481
 21
46.0642736219
 31
0.0
  0
LINE
  5
154
330
1F
100
AcDbEntity
  8
0
  6
Continuous
 62
     7
370
    25
100
AcDbLine
 10
118.8773425481
 20
46.0642736219
 30
0.0
 11
118.8773425481
 21
35.0642736219
 31
0.0
  0
LINE
  5
155
330
1F
100
AcDbEntity
  8
0
  6
Continuous
 62
     7
370
    25
100
AcDbLine
 10
160.7873425481
 20
35.0642736219
 30
0.0
 11
160.7873425481
 21
46.0642736219
 31
0.0
  0
LINE
  5
156
330
1F
100
AcDbEntity
  8
0
  6
Continuous
 62
     7
370
    25
100
AcDbLine
 10
119.8323425481
 20
2.0642736219
 30
0.0
 11
119.8323425481
 21
-48.9357263781
 31
0.0
  0
LINE
  5
157
330
1F
100
AcDbEntity
  8
0
  6
Continuous
 62
     7
370
    25
100
AcDbLine
 10
159.8323425481
 20
-48.9357263781
 30
0.0
 11
159.8323425481
 21
2.0642736219
 31
0.0
  0
LINE
  5
158
330
1F
100
AcDbEntity
  8
0
  6
Continuous
 62
     7
370
    25
100
AcDbLine
 10
139.8323425481
 20
26.0642736219
 30
0.0
 11
139.8323425481
 21
35.0642736219
 31
0.0
  0
LINE
  5
159
330
1F
100
AcDbEntity
  8
0
  6
Continuous
 62
     7
370
    25
100
AcDbLine
 10
139.8323425481
 20
26.0642736219
 30
0.0
 11
114.8323425481
 21
26.0642736219
 31
0.0
  0
LINE
  5
15A
330
1F
100
AcDbEntity
  8
0
  6
Continuous
 62
     7
370
    25
100
AcDbLine
 10
114.8323425481
 20
26.0642736219
 30
0.0
 11
114.8323425481
 21
35.0642736219
 31
0.0
  0
LINE
  5
15B
330
1F
100
AcDbEntity
  8
0
  6
Continuous
 62
     7
370
    25
100
AcDbLine
 10
139.8323425481
 20
35.0642736219
 30
0.0
 11
114.8323425481
 21
35.0642736219
 31
0.0
  0
LINE
  5
15C
330
1F
100
AcDbEntity
  8
0
  6
Continuous
 62
     7
370
    25
100
AcDbLine
 10
164.8323425481
 20
26.0642736219
 30
0.0
 11
164.8323425481
 21
35.0642736219
 31
0.0
  0
LINE
  5
15D
330
1F
100
AcDbEntity
  8
0
  6
Continuous
 62
     7
370
    25
100
AcDbLine
 10
164.8323425481
 20
26.0642736219
 30
0.0
 11
139.8323425481
 21
26.0642736219
 31
0.0
  0
LINE
  5
15E
330
1F
100
AcDbEntity
  8
0
  6
Continuous
 62
     7
370
    25
100
AcDbLine
 10
164.8323425481
 20
35.0642736219
 30
0.0
 11
139.8323425481
 21
35.0642736219
 31
0.0
  0
LINE
  5
15F
330
1F
100
AcDbEntity
  8
0
  6
Continuous
 62
     7
370
    25
100
AcDbLine
 10
117.8323425481
 20
2.0642736219
 30
0.0
 11
161.832342548
 21
2.0642736219
 31
0.0
  0
LINE
  5
160
330
1F
100
AcDbEntity
  8
0
  6
Continuous
 62
     7
370
    25
100
AcDbLine
 10
118.8773425481
 20
52.0642736219
 30
0.0
 11
160.7873425481
 21
52.0642736219
 31
0.0
  0
LINE
  5
161
330
1F
100
AcDbEntity
  8
0
  6
Continuous
 62
     7
370
    25
100
AcDbLine
 10
120.6093933556
 20
53.0642736219
 30
0.0
 11
159.0552917405
 21
53.0642736219
 31
0.0
  0
LINE
  5
162
330
1F
100
AcDbEntity
  8
0
  6
Continuous
 62
     7
370
    25
100
AcDbLine
 10
120.6093933556
 20
51.0642736219
 30
0.0
 11
159.0552917405
 21
51.0642736219
 31
0.0
  0
LINE
  5
163
330
1F
100
AcDbEntity
  8
0
  6
Continuous
 62
     7
370
    25
100
AcDbLine
 10
118.8773425481
 20
50.0642736219
 30
0.0
 11
160.7873425481
 21
50.0642736219
 31
0.0
  0
LINE
  5
164
330
1F
100
AcDbEntity
  8
0
  6
Continuous
 62
     7
370
    25
100
AcDbLine
 10
120.6093933556
 20
49.0642736219
 30
0.0
 11
159.0552917405
 21
49.0642736219
 31
0.0
  0
LINE
  5
165
330
1F
100
AcDbEntity
  8
0
  6
Continuous
 62
     7
370
    25
100
AcDbLine
 10
118.8773425481
 20
48.0642736219
 30
0.0
 11
160.7873425481
 21
48.0642736219
 31
0.0
  0
LINE
  5
166
330
1F
100
AcDbEntity
  8
0
  6
Continuous
 62
     7
370
    25
100
AcDbLine
 10
120.6093933556
 20
47.0642736219
 30
0.0
 11
159.0552917405
 21
47.0642736219
 31
0.0
  0
LINE
  5
167
330
1F
100
AcDbEntity
  8
0
  6
Continuous
 62
     7
370
    25
100
AcDbLine
 10
118.8773425481
 20
46.0642736219
 30
0.0
 11
160.7873425481
 21
46.0642736219
 31
0.0
  0
LINE
  5
168
330
1F
100
AcDbEntity
  8
0
  6
Continuous
 62
     7
370
    25
100
AcDbLine
 10
119.8323425481
 20
-48.9357263781
 30
0.0
 11
159.8323425481
 21
-48.9357263781
 31
0.0
  0
LINE
  5
169
330
1F
100
AcDbEntity
  8
0
  6
Continuous
 62
     1
370
    25
100
AcDbLine
 10
117.3323425481
 20
2.5642736219
 30
0.0
 11
162.3323425481
 21
2.5642736219
 31
0.0
  0
ENDSEC
  0
SECTION
  2
OBJECTS
  0
DICTIONARY
  5
C
330
0
100
AcDbDictionary
281
     1
  3
ACAD_GROUP
350
D
  3
ACAD_LAYOUT
350
1A
  3
ACAD_MLINESTYLE
350
17
  3
ACAD_PLOTSETTINGS
350
19
  3
ACAD_PLOTSTYLENAME
350
E
  3
ACAD_SCALELIST
350
47
  3
DWGPROPS
350
16A
  0
DICTIONARY
  5
D
102
{ACAD_REACTORS
330
C
102
}
330
C
100
AcDbDictionary
281
     1
  0
DICTIONARY
  5
1A
102
{ACAD_REACTORS
330
C
102
}
330
C
100
AcDbDictionary
281
     1
  3
Layout1
350
1E
  3
Layout2
350
26
  3
Model
350
22
  0
DICTIONARY
  5
17
102
{ACAD_REACTORS
330
C
102
}
330
C
100
AcDbDictionary
281
     1
  3
Standard
350
18
  0
DICTIONARY
  5
19
102
{ACAD_REACTORS
330
C
102
}
330
C
100
AcDbDictionary
281
     1
  0
ACDBDICTIONARYWDFLT
  5
E
102
{ACAD_REACTORS
330
C
102
}
330
C
100
AcDbDictionary
281
     1
  3
Normal
350
F
100
AcDbDictionaryWithDefault
340
F
  0
DICTIONARY
  5
47
102
{ACAD_REACTORS
330
C
102
}
330
C
100
AcDbDictionary
281
     1
  3
A0
350
48
  3
A1
350
49
  3
A2
350
4A
  3
A3
350
4B
  3
A4
350
4C
  3
A5
350
4D
  3
A6
350
4E
  3
A7
350
4F
  3
A8
350
50
  3
A9
350
51
  3
B0
350
52
  3
B1
350
53
  3
B2
350
54
  3
B3
350
55
  3
B4
350
56
  3
B5
350
57
  3
B6
350
58
  3
B7
350
59
  3
B8
350
5A
  3
B9
350
5B
  3
C0
350
5C
  3
C1
350
5D
  3
C2
350
5E
  3
C3
350
5F
  3
C4
350
60
  3
C5
350
61
  3
C6
350
62
  3
C7
350
63
  3
C8
350
64
  3
C9
350
65
  3
D0
350
66
  3
D1
350
67
  3
D2
350
68
  0
XRECORD
  5
16A
102
{ACAD_REACTORS
330
C
102
}
330
C
100
AcDbXrecord
280
     1
  1
DWGPROPS COOKIE
  2

  3

  4

  6

  7

  8
b.kav
  9

300
=
301
=
302
=
303
=
304
=
305
=
306
=
307
=
308
=
309
=
 40
0.0
 41
2459948.454390648
 42
2459948.454390822
  1

 90
        0
  0
LAYOUT
  5
1E
102
{ACAD_REACTORS
330
1A
102
}
330
1A
100
AcDbPlotSettings
  1

  2
none_device
  4

  6

 40
0.0
 41
0.0
 42
0.0
 43
0.0
 44
0.0
 45
0.0
 46
0.0
 47
0.0
 48
0.0
 49
0.0
140
0.0
141
0.0
142
1.0
143
1.0
 70
   688
 72
     1
 73
     0
 74
     5
  7

 75
    16
147
1.0
148
0.0
149
0.0
100
AcDbLayout
  1
Layout1
 70
     1
 71
     1
 10
0.0
 20
0.0
 11
420.0
 21
297.0
 12
0.0
 22
0.0
 32
0.0
 14
1.0000000000E+20
 24
1.0000000000E+20
 34
1.0000000000E+20
 15
-1.0000000000E+20
 25
-1.0000000000E+20
 35
-1.0000000000E+20
146
0.0
 13
0.0
 23
0.0
 33
0.0
 16
1.0
 26
0.0
 36
0.0
 17
0.0
 27
1.0
 37
0.0
 76
     0
330
1B
  0
LAYOUT
  5
26
102
{ACAD_REACTORS
330
1A
102
}
330
1A
100
AcDbPlotSettings
  1

  2
none_device
  4

  6

 40
0.0
 41
0.0
 42
0.0
 43
0.0
 44
0.0
 45
0.0
 46
0.0
 47
0.0
 48
0.0
 49
0.0
140
0.0
141
0.0
142
1.0
143
1.0
 70
   688
 72
     1
 73
     0
 74
     5
  7

 75
    16
147
1.0
148
0.0
149
0.0
100
AcDbLayout
  1
Layout2
 70
     1
 71
     2
 10
0.0
 20
0.0
 11
0.0
 21
0.0
 12
0.0
 22
0.0
 32
0.0
 14
0.0
 24
0.0
 34
0.0
 15
0.0
 25
0.0
 35
0.0
146
0.0
 13
0.0
 23
0.0
 33
0.0
 16
1.0
 26
0.0
 36
0.0
 17
0.0
 27
1.0
 37
0.0
 76
     0
330
23
  0
LAYOUT
  5
22
102
{ACAD_REACTORS
330
1A
102
}
330
1A
100
AcDbPlotSettings
  1

  2
none_device
  4
Letter_(8.50_x_11.00_Inches)
  6

 40
6.35
 41
6.35
 42
6.35000508
 43
6.35000508
 44
215.9
 45
279.4
 46
0.0
 47
0.0
 48
0.0
 49
0.0
140
0.0
141
0.0
142
1.0
143
1.0
 70
  1712
 72
     1
 73
     0
 74
     0
  7

 75
     0
147
1.0
148
0.0
149
0.0
100
AcDbLayout
  1
Model
 70
     1
 71
     0
 10
0.0
 20
0.0
 11
279.4
 21
215.9
 12
0.0
 22
0.0
 32
0.0
 14
0.0
 24
0.0
 34
0.0
 15
279.4
 25
215.9
 35
0.0
146
0.0
 13
0.0
 23
0.0
 33
0.0
 16
1.0
 26
0.0
 36
0.0
 17
0.0
 27
1.0
 37
0.0
 76
     0
330
1F
331
29
  0
MLINESTYLE
  5
18
102
{ACAD_REACTORS
330
17
102
}
330
17
100
AcDbMlineStyle
  2
Standard
 70
     0
  3

 62
   256
 51
90.0
 52
90.0
 71
     2
 49
0.5
 62
   256
  6
BYLAYER
 49
-0.5
 62
   256
  6
BYLAYER
  0
ACDBPLACEHOLDER
  5
F
102
{ACAD_REACTORS
330
E
102
}
330
E
  0
SCALE
  5
48
102
{ACAD_REACTORS
330
47
102
}
330
47
100
AcDbScale
 70
     0
300
1:1
140
1.0
141
1.0
290
     1
  0
SCALE
  5
49
102
{ACAD_REACTORS
330
47
102
}
330
47
100
AcDbScale
 70
     0
300
1:2
140
1.0
141
2.0
290
     0
  0
SCALE
  5
4A
102
{ACAD_REACTORS
330
47
102
}
330
47
100
AcDbScale
 70
     0
300
1:4
140
1.0
141
4.0
290
     0
  0
SCALE
  5
4B
102
{ACAD_REACTORS
330
47
102
}
330
47
100
AcDbScale
 70
     0
300
1:5
140
1.0
141
5.0
290
     0
  0
SCALE
  5
4C
102
{ACAD_REACTORS
330
47
102
}
330
47
100
AcDbScale
 70
     0
300
1:8
140
1.0
141
8.0
290
     0
  0
SCALE
  5
4D
102
{ACAD_REACTORS
330
47
102
}
330
47
100
AcDbScale
 70
     0
300
1:10
140
1.0
141
10.0
290
     0
  0
SCALE
  5
4E
102
{ACAD_REACTORS
330
47
102
}
330
47
100
AcDbScale
 70
     0
300
1:16
140
1.0
141
16.0
290
     0
  0
SCALE
  5
4F
102
{ACAD_REACTORS
330
47
102
}
330
47
100
AcDbScale
 70
     0
300
1:20
140
1.0
141
20.0
290
     0
  0
SCALE
  5
50
102
{ACAD_REACTORS
330
47
102
}
330
47
100
AcDbScale
 70
     0
300
1:30
140
1.0
141
30.0
290
     0
  0
SCALE
  5
51
102
{ACAD_REACTORS
330
47
102
}
330
47
100
AcDbScale
 70
     0
300
1:40
140
1.0
141
40.0
290
     0
  0
SCALE
  5
52
102
{ACAD_REACTORS
330
47
102
}
330
47
100
AcDbScale
 70
     0
300
1:50
140
1.0
141
50.0
290
     0
  0
SCALE
  5
53
102
{ACAD_REACTORS
330
47
102
}
330
47
100
AcDbScale
 70
     0
300
1:100
140
1.0
141
100.0
290
     0
  0
SCALE
  5
54
102
{ACAD_REACTORS
330
47
102
}
330
47
100
AcDbScale
 70
     0
300
2:1
140
2.0
141
1.0
290
     0
  0
SCALE
  5
55
102
{ACAD_REACTORS
330
47
102
}
330
47
100
AcDbScale
 70
     0
300
4:1
140
4.0
141
1.0
290
     0
  0
SCALE
  5
56
102
{ACAD_REACTORS
330
47
102
}
330
47
100
AcDbScale
 70
     0
300
8:1
140
8.0
141
1.0
290
     0
  0
SCALE
  5
57
102
{ACAD_REACTORS
330
47
102
}
330
47
100
AcDbScale
 70
     0
300
10:1
140
10.0
141
1.0
290
     0
  0
SCALE
  5
58
102
{ACAD_REACTORS
330
47
102
}
330
47
100
AcDbScale
 70
     0
300
100:1
140
100.0
141
1.0
290
     0
  0
SCALE
  5
59
102
{ACAD_REACTORS
330
47
102
}
330
47
100
AcDbScale
 70
     0
300
1/128" = 1'-0"
140
0.0078125
141
12.0
290
     0
  0
SCALE
  5
5A
102
{ACAD_REACTORS
330
47
102
}
330
47
100
AcDbScale
 70
     0
300
1/64" = 1'-0"
140
0.015625
141
12.0
290
     0
  0
SCALE
  5
5B
102
{ACAD_REACTORS
330
47
102
}
330
47
100
AcDbScale
 70
     0
300
1/32" = 1'-0"
140
0.03125
141
12.0
290
     0
  0
SCALE
  5
5C
102
{ACAD_REACTORS
330
47
102
}
330
47
100
AcDbScale
 70
     0
300
1/16" = 1'-0"
140
0.0625
141
12.0
290
     0
  0
SCALE
  5
5D
102
{ACAD_REACTORS
330
47
102
}
330
47
100
AcDbScale
 70
     0
300
3/32" = 1'-0"
140
0.09375
141
12.0
290
     0
  0
SCALE
  5
5E
102
{ACAD_REACTORS
330
47
102
}
330
47
100
AcDbScale
 70
     0
300
1/8" = 1'-0"
140
0.125
141
12.0
290
     0
  0
SCALE
  5
5F
102
{ACAD_REACTORS
330
47
102
}
330
47
100
AcDbScale
 70
     0
300
3/16" = 1'-0"
140
0.1875
141
12.0
290
     0
  0
SCALE
  5
60
102
{ACAD_REACTORS
330
47
102
}
330
47
100
AcDbScale
 70
     0
300
1/4" = 1'-0"
140
0.25
141
12.0
290
     0
  0
SCALE
  5
61
102
{ACAD_REACTORS
330
47
102
}
330
47
100
AcDbScale
 70
     0
300
3/8" = 1'-0"
140
0.375
141
12.0
290
     0
  0
SCALE
  5
62
102
{ACAD_REACTORS
330
47
102
}
330
47
100
AcDbScale
 70
     0
300
1/2" = 1'-0"
140
0.5
141
12.0
290
     0
  0
SCALE
  5
63
102
{ACAD_REACTORS
330
47
102
}
330
47
100
AcDbScale
 70
     0
300
3/4" = 1'-0"
140
0.75
141
12.0
290
     0
  0
SCALE
  5
64
102
{ACAD_REACTORS
330
47
102
}
330
47
100
AcDbScale
 70
     0
300
1" = 1'-0"
140
1.0
141
12.0
290
     0
  0
SCALE
  5
65
102
{ACAD_REACTORS
330
47
102
}
330
47
100
AcDbScale
 70
     0
300
1-1/2" = 1'-0"
140
1.5
141
12.0
290
     0
  0
SCALE
  5
66
102
{ACAD_REACTORS
330
47
102
}
330
47
100
AcDbScale
 70
     0
300
3" = 1'-0"
140
3.0
141
12.0
290
     0
  0
SCALE
  5
67
102
{ACAD_REACTORS
330
47
102
}
330
47
100
AcDbScale
 70
     0
300
6" = 1'-0"
140
6.0
141
12.0
290
     0
  0
SCALE
  5
68
102
{ACAD_REACTORS
330
47
102
}
330
47
100
AcDbScale
 70
     0
300
1'-0" = 1'-0"
140
12.0
141
12.0
290
     0
  0
ENDSEC
  0
EOF
